Oops, an error
Loading. Please wait.

Orange Twilight So Close tab

version 1
version 1

Whole song

Interactive

938 views 9 this week
no commentswrite comment
1 2 3 4 5
2 more votes to show rating
add to favorites
×
Save as Personal and add changes to this tab that will be seen only by you. Learn more ›
×
You can save this tab as Personal to edit and correct it or add notes. All changes will be seen only by you. Learn more »
launch autoscroll
font size
0
reset
how to read this tab
guitar tuner
edit
Autoscroll
slow
fast
+/-
esc
set tempo
stop
Author
Difficulty
Title: Orange Twilight So Close
Artist: Funczion SOUNDS
Album: Yume Miru Kusuri - A Drug That Makes You Dream
Author: pawlsak (pperple on ultimate-guitar) and Ruskia 


/ : slide up
\ : slide down
* : Don't play, just hold.
(): "Ghost notes", meaning you play them very softly.


Track 1: Lead Guitar
(0:10)
-----------------------------------------------------------|
10/12---10---14\9--------------9-10--9---------------------|
------------------------10/11-----------5/6-9--------------|
-----------------------------------------------------------|
-----------------------------------------------------------|
-----------------------------------------------------------|

-----------------------------------------------------------|
10/12---10---14--9-----6/7----6/7--9--10--12--14\9---------|
-----------------------------------------------------------|
-----------------------------------------------------------|
-----------------------------------------------------------|
-----------------------------------------------------------|

-----------------------------------------------------------|
10/12---10---14\9--------------9-10--9---------------------|
------------------------10/11-----------5/6*-*6/9----------|
-----------------------------------------------------------|
-----------------------------------------------------------|
-----------------------------------------------------------|

----------------------------------------------9------------|
10/12---10---14--9-----6/7----6/7--9--10--12-----9---------|
-----------------------------------------------------------|
-----------------------------------------------------------|
-----------------------------------------------------------|
-----------------------------------------------------------|

(01:02)
-----------------------------------------------------------|
(9)-9----6/7-----------------------------------7-----------|
-------------9--8-----6--8/9-8--------------------6--------|
-----------------------------------------------------------|
-----------------------------------------------------------|
-----------------------------------------------------------|

-----------------------------------------------------------|
--------------------7--------------9-----------------------|
6--8----6--8/9-8-------6-------6-8-------------------------|
-----------------------------9-----------------------------|
-----------------------------------------------------------|
-----------------------------------------------------------|

-----------------------------------------------------------|
-----------------------9-----------------------------------|
6---9---9-9-9----6--9-----9----6--4/6--6-------------------|
-----------------------------------------------------------|
-----------------------------------------------------------|
-----------------------------------------------------------|

-----------------------------------------------------------|
----------------------9--10--12--13--15----15/17--15--14---|
6---9---9-9-9----6--9--------------------------------------|
-----------------------------------------------------------|
-----------------------------------------------------------|
-----------------------------------------------------------|

(02:02)
--------9--------------------------------------------------|
12--10-----9------------------9-10--9--------5-------------|
-----------------------10/11----------5/6------------------|
-----------------------------------------------------------|
-----------------------------------------------------------|
-----------------------------------------------------------|

-------------------------------------------------12--------|
10/12--10--14--9---6/7------6/7---9--10--12--14------------|
-----------------------------------------------------------|
-----------------------------------------------------------|
-----------------------------------------------------------|
-----------------------------------------------------------|

10---9-----------------------------------------------------|
-------12--10-9-7----------------------7-------------------|
-------------------9-8----6--8/9--8-------6----------------|
-----------------------------------------------------------|
-----------------------------------------------------------|
-----------------------------------------------------------|

First little solo (02:39)
-----------------------------------------------------------|
--12-10--9/10\9-9------------------------------------------|
9-----------------9-------------------------6--8/9-9--8----|
---------------------11--9----7\6--6--6-7-9----------------|
-----------------------------------------------------------|
-----------------------------------------------------------|

-----------------------------------------------------------|
-----------7----------------9--------------9\5-------------|
6--8/9-8------6---------6-8--------------------------------|
--------------------8/9------------------------------------|
-----------------------------------------------------------|
-----------------------------------------------------------|

-----------------------------------------------------------|
-----------------9-----------------------------------------|
9--9-9-9\6-6--9------9--6--3/4---6-------------------------|
---------------------------------7-------------------------|
-----------------------------------------------------------|
-----------------------------------------------------------|

Second little solo (03:06)
------7----------------------(7)-5-4---4-------------------|
---------10\9-9-(5)---5-------------(5)--------------------|
(6)-9---------------6--------------------------------------|
-----------------------------------------------------------|
-----------------------------------------------------------|
-----------------------------------------------------------|

---------------------------8--10--10/12--10--9-------------|
------------------9-10-12------------------------9/12-10-9-|
8/9--9-9-9\6-6--9------------------------------------------|
-----------------------------------------------------------|
-----------------------------------------------------------|
-----------------------------------------------------------|





Track 2: Rhythm Guitar
[intro] x3
E|---------------------0-----------|-------------0------------------||--------|
B|---------2---------------2-------|-----2-----------2-----------2--||--------|
G|-------------4-------------------|-4-----------------------4------||--------|
D|-----2-----------2-----------2---|---------2-----------2----------||--------|
A|-0-------------------------------|--------------------------------||-0------|
E|---------------------------------|--------------------------------||--------|


[verse A1] x4 again 
E|---------------------0-----------|-------------0-------------------||
B|---------2---------------2-------|-----2-----------2-----------2---||
G|-------------4-------------------|-4-----------------------4-------||
D|-----2-----------2-----------2---|---------2-----------2-----------||
A|-0-------------------------------|---------------------------------||
E|---------------------------------|---------------------------------||


x2
E|---------------------0-----------|-------------0-------------------||
B|-------------5-----------5-------|-5-----------------------5-------||
G|---------6-----------------------|-----6-----------6-----------6---||
D|-----4-----------4-----------4---|---------4-----------4-----------||
A|-0-------------------------------|---------------------------------||
E|---------------------------------|---------------------------------||


x2   
E|---------------------0-----------|-------------0-------------------||
B|---------2---------------2-------|-----2-----------2-----------2---||
G|-------------4-------------------|-4-----------------------4-------||
D|-----2-----------2-----------2---|---------2-----------2-----------||
A|-0-------------------------------|---------------------------------||
E|---------------------------------|---------------------------------||


[verse A2] x4   
E|---------------------0-----------|-------------0-------------------||
B|---------2---------------2-------|-----2-----------2-----------2---||
G|-------------4-------------------|-4-----------------------4-------||
D|-----2-----------2-----------2---|---------2-----------2-----------||
A|-0-------------------------------|---------------------------------||
E|---------------------------------|---------------------------------||


x2
E|---------------------0-----------|-------------0-------------------||
B|-------------5-----------5-------|-5-----------------------5-------||
G|---------6-----------------------|-----6-----------6-----------6---||
D|-----4-----------4-----------4---|---------4-----------4-----------||
A|-0-------------------------------|---------------------------------||
E|---------------------------------|---------------------------------||


x2 
E|---------------------0-----------|-------------0-------------------||
B|---------2---------------2-------|-----2-----------2-----------2---||
G|-------------4-------------------|-4-----------------------4-------||
D|-----2-----------2-----------2---|---------2-----------2-----------||
A|-0-------------------------------|---------------------------------||
E|---------------------------------|---------------------------------||


[bridge] x2
E|---------------------2-----------|-------------2-------------------||
B|-------------4-------------------|-4-----------------------4-------||
G|---------4---------------4-------|-----4-----------4-----------4---||
D|-----2-----------2-----------2---|---------2-----------2-----------||
A|-0-------------------------------|---------------------------------||
E|---------------------------------|---------------------------------||


E|---------------------2-----------|-4-----------------------2-------|
B|-------------2-------------------|-------------2-------------------|
G|---------4---------------4-------|-----4-----------4-----------4---|
D|-----2-----------2-----------2---|---------2-----------2-----------|
A|-0-------------------------------|---------------------------------|
E|---------------------------------|---------------------------------|


E|-----------------2---------------|---------2-----------------------|
B|---------2-------------------2---|---------------------2-----------|
G|-----4---------------4-----------|-4-----------4-----------4-------|
D|-2-----------2-----------2-------|-----2-----------2-----------2---|
A|---------------------------------|---------------------------------|
E|---------------------------------|---------------------------------|


x2
E|---------------------2-----------|-------------2-------------------||
B|-------------4-------------------|-4-----------------------4-------||
G|---------4---------------4-------|-----4-----------4-----------4---||
D|-----2-----------2-----------2---|---------2-----------2-----------||
A|-0-------------------------------|---------------------------------||
E|---------------------------------|---------------------------------||


E|---------------------2-----------|-------------2-------------------|
B|-------------2-------------------|-2-----------------------2-------|
G|---------4---------------4-------|-----4-----------4-----------4---|
D|-----2-----------2-----------2---|---------2-----------2-----------|
A|-0-------------------------------|---------------------------------|
E|---------------------------------|---------------------------------|


E|---------------------6-----------|-------------6-------------------|
B|-------------6-------------------|-6-----------------------6-------|
G|---------8---------------8-------|-----8-----------8-----------8---|
D|-----6-----------6-----------6---|---------6-----------6-----------|
A|-0-------------------------------|---------------------------------|
E|---------------------------------|---------------------------------|


[chorus] x3
E|---------------------0-----------|-------------0-------------------|
B|---------2---------------2-------|-----2-----------2-----------2---|
G|-------------4-------------------|-4-----------------------4-------|
D|-----2-----------2-----------2---|---------2-----------2-----------|
A|-0-------------------------------|---------------------------------|
E|---------------------------------|---------------------------------|


E|---------------------0-----------|-------------0-------------------||
B|-------------5-----------5-------|-5-----------------------5-------||
G|---------6-----------------------|-----6-----------6-----------6---||
D|-----4-----------4-----------4---|---------4-----------4-----------||
A|-0-------------------------------|---------------------------------||
E|---------------------------------|---------------------------------||


E|---------------------0-----------|-------------0-------------------|---------------------0-----------|
B|-------------3-------------------|-3---------------3-------3-------|-------------3-----------3-------|
G|---------4---------------4-------|-----4-----------------------4---|---------2-----------------------|
D|-----2-----------2-----------2---|---------2-----------2-----------|-----2-----------2-----------2---|
A|-0-------------------------------|---------------------------------|-0-------------------------------|
E|---------------------------------|---------------------------------|---------------------------------|


E|-------------0-------------------|---------------------0-----------|-------------0-------------------|
B|-3-----------------------3-------|---------2---------------2-------|-----2-----------2-----------2---|
G|-----2-----------2-----------2---|-------------4-------------------|-4-----------------------4-------|
D|---------2-----------2-----------|-----2-----------2-----------2---|---------2-----------2-----------|
A|---------------------------------|-0-------------------------------|---------------------------------|
E|---------------------------------|---------------------------------|---------------------------------|


E|---------------------0-----------|-0------|
B|---------2---------------2-------|-2------|
G|-------------4-------------------|-4------|
D|-----2-----------2-----------2---|--------|
A|-0-------------------------------|--------|
E|---------------------------------|--------|


[verse B] x4
E|---------------------0-----------|-------------0-------------------||
B|---------2---------------2-------|-----2-----------2-----------2---||
G|-------------4-------------------|-4-----------------------4-------||
D|-----2-----------2-----------2---|---------2-----------2-----------||
A|-0-------------------------------|---------------------------------||
E|---------------------------------|---------------------------------||


x2
E|---------------------0-----------|-------------0-------------------||
B|-------------5-----------5-------|-5-----------------------5-------||
G|---------6-----------------------|-----6-----------6-----------6---||
D|-----4-----------4-----------4---|---------4-----------4-----------||
A|-0-------------------------------|---------------------------------||
E|---------------------------------|---------------------------------||


x2   
E|---------------------0-----------|-------------0-------------------||
B|---------2---------------2-------|-----2-----------2-----------2---||
G|-------------4-------------------|-4-----------------------4-------||
D|-----2-----------2-----------2---|---------2-----------2-----------||
A|-0-------------------------------|---------------------------------||
E|---------------------------------|---------------------------------||


[bridge] x2
E|---------------------2-----------|-------------2-------------------||
B|-------------4-------------------|-4-----------------------4-------||
G|---------4---------------4-------|-----4-----------4-----------4---||
D|-----2-----------2-----------2---|---------2-----------2-----------||
A|-0-------------------------------|---------------------------------||
E|---------------------------------|---------------------------------||


E|---------------------2-----------|-4-----------------------2-------|
B|-------------2-------------------|-------------2-------------------|
G|---------4---------------4-------|-----4-----------4-----------4---|
D|-----2-----------2-----------2---|---------2-----------2-----------|
A|-0-------------------------------|---------------------------------|
E|---------------------------------|---------------------------------|


E|-----------------2---------------|---------2-----------------------|
B|---------2-------------------2---|---------------------2-----------|
G|-----4---------------4-----------|-4-----------4-----------4-------|
D|-2-----------2-----------2-------|-----2-----------2-----------2---|
A|---------------------------------|---------------------------------|
E|---------------------------------|---------------------------------|


x2
E|---------------------2-----------|-------------2-------------------||
B|-------------4-------------------|-4-----------------------4-------||
G|---------4---------------4-------|-----4-----------4-----------4---||
D|-----2-----------2-----------2---|---------2-----------2-----------||
A|-0-------------------------------|---------------------------------||
E|---------------------------------|---------------------------------||


E|---------------------2-----------|-------------2-------------------|
B|-------------2-------------------|-2-----------------------2-------|
G|---------4---------------4-------|-----4-----------4-----------4---|
D|-----2-----------2-----------2---|---------2-----------2-----------|
A|-0-------------------------------|---------------------------------|
E|---------------------------------|---------------------------------|


E|---------------------6-----------|-------------6-------------------|
B|-------------6-------------------|-6-----------------------6-------|
G|---------8---------------8-------|-----8-----------8-----------8---|
D|-----6-----------6-----------6---|---------6-----------6-----------|
A|-0-------------------------------|---------------------------------|
E|---------------------------------|---------------------------------|


[chorus] x3
E|---------------------0-----------|-------------0-------------------|
B|---------2---------------2-------|-----2-----------2-----------2---|
G|-------------4-------------------|-4-----------------------4-------|
D|-----2-----------2-----------2---|---------2-----------2-----------|
A|-0-------------------------------|---------------------------------|
E|---------------------------------|---------------------------------|


E|---------------------0-----------|-------------0-------------------||
B|-------------5-----------5-------|-5-----------------------5-------||
G|---------6-----------------------|-----6-----------6-----------6---||
D|-----4-----------4-----------4---|---------4-----------4-----------||
A|-0-------------------------------|---------------------------------||
E|---------------------------------|---------------------------------||


E|---------------------0-----------|-------------0-------------------|---------------------0-----------|
B|-------------3-------------------|-3---------------3-------3-------|-------------3-----------3-------|
G|---------4---------------4-------|-----4-----------------------4---|---------2-----------------------|
D|-----2-----------2-----------2---|---------2-----------2-----------|-----2-----------2-----------2---|
A|-0-------------------------------|---------------------------------|-0-------------------------------|
E|---------------------------------|---------------------------------|---------------------------------|


E|-------------0-------------------|---------------------0-----------|-------------0-------------------|
B|-3-----------------------3-------|---------2---------------2-------|-----2-----------2-----------2---|
G|-----2-----------2-----------2---|-------------4-------------------|-4-----------------------4-------|
D|---------2-----------2-----------|-----2-----------2-----------2---|---------2-----------2-----------|
A|---------------------------------|-0-------------------------------|---------------------------------|
E|---------------------------------|---------------------------------|---------------------------------|


[outro]
E|---------------------0-----------|-------------0-------------------|---------------------0-----------|
B|---------2---------------2-------|-----2-----------2-----------2---|---------2---------------2-------|
G|-------------4-------------------|-4-----------------------4-------|-------------4-------------------|
D|-----2-----------2-----------2---|---------2-----------2-----------|-----2-----------2-----------2---|
A|-0-------------------------------|---------------------------------|-0-------------------------------|
E|---------------------------------|---------------------------------|---------------------------------|


E|-------------------------0-------|---------------------0-----------|-0------|
B|-----2-----------2-----------2---|---------2---------------2-------|-2------|
G|-4-----------4-------------------|-------------4-------------------|-4------|
D|---------2-----------2-----------|-----2-----------2-----------2---|--------|
A|---------------------------------|-0-------------------------------|--------|
E|---------------------------------|---------------------------------|--------|


That's it.
Suggest correction
Creating personal tab
Creating personal tab
You can edit any tab online and save it as your Personal.

You can edit, replace or remove any tab part or add personal notes – all changes will be seen only by you.

Personal tabs can be accessed anytime from any device, even offline.
Learn more »
Give kudos to tab author, rate the tab!
1 2 3 4 5
comments
print report bad tab
guest
You may want to rate the tab now too:
select rating
Wanna post a correction for this tab? Suggest correction