Oops, an error
Loading. Please wait.

1045 Amsterdam Conversations Bass Tab

version 2
version 2

Whole song

Interactive

105 views 3 this week
no commentswrite comment
1 2 3 4 5
3 more votes to show rating
add to favorites
launch autoscroll
font size
0
reset
guitar tuner
Autoscroll
slow
fast
+/-
esc
set tempo
stop
Help us to improve Ultimate-Guitar.com Take our survey!
×
Difficulty
Tuning
novice
C# G# C# F# A# D#
-------------------------------------------------------------------------------
			     10:45 Amsterdam Conversations - Funeral For A Friend
-------------------------------------------------------------------------------

Tabbed By : 
e-mail: 

Tuning: D Flat (F# C# G# C#)

Intro - watch for the pattern/slight tempo change every couple of bars
F#|--------------------------------------|
C#|--------------------------------------|
G#|--------------------------------------|
C#|-000-000-000-000-333-333-555-888------|

F#|--------|
C#|--------|
G#|--------|
C#|-8~~~---|

Verse
F#|--------------------------------------------------|
C#|-----------------3p2------------------------------|
G#|-------------6p3----------------------------------|
C#|-1p00000000----------1p0000-1/77777777------------|

Pre-Chorus - the strumming pattern might be a wee hard to fathom here
F#|-----------------------------------|
C#|-----------------------------------|
G#|-----------------------------------|
C#|-10-10-10-10-10-10-10-12-----------|

Chorus - same as intro
F#|-------------------------------------------|
C#|-------------------------------------------|
G#|-------------------------------------------|
C#|-000-000-000-000-333-333-555-888-----------|

Verse
F#|--------------------------------------------------|
C#|-----------------3p2------------------------------|
G#|-------------6p3----------------------------------|
C#|-1p00000000----------1p0000-1/77777777------------|

Pre-Chorus
F#|-----------------------------------|
C#|-----------------------------------|
G#|-----------------------------------|
C#|-10-10-10-10-10-10-10-12-----------|

Breakdown
F#|------|
C#|------| Just play that a few time - easy enough to follow the timing
G#|------|
C#|-8~~--|

Outro
F#|------------------------------------------------|
C#|------------------------------------------------|
G#|------------------------------------------------|
C#|-3333-5555-8-88~-10-1010~-8888-10101010---------|
Suggest correction
Give kudos to tab author, rate the tab!
1 2 3 4 5
comments
print report bad tab
guest
You may want to rate the tab now too:
select rating
Wanna post a correction for this tab? Suggest correction