Oops, an error
Loading. Please wait.

1045 Amsterdam Conversations Tab

version 2
version 2

Whole song

Interactive

977 views 3 this week
no commentswrite comment
1 2 3 4 5
accurate
x 5
add to favorites
launch autoscroll
font size
0
reset
how to read this tab
guitar tuner
Tab Pro tools
  • play this tab
  • loop segment
  • change instrument
  • show fretboard
  • metronome
×
Best way to learn
"1045 Amsterdam Conversations"
Autoscroll
slow
fast
+/-
esc
set tempo
stop
#----------------------------------PLEASE NOTE---------------------------------#
#This file is the author's own work and represents their interpretation of the-#
#song. You may only use this file for private study, scholarship, or research.-#
#------------------------------------------------------------------------------#

Funeral For A Friend - 10:45 Amsterdam Conversations
Submitted By: Sqweeky
EMail: Blindside831@aol.com
E.P: Between order and model
Tabbed by Leo Dennett masterofpuppets31@hotmail.com

Tuning: (low to high) Db, Ab, Db, Gb, Bb, Eb

Intro (Guitar 1) Clean with mild distortion
Eb|-------------------------------------------------------------------------------|
Bb|----------------------------15-15-15-15-15-15-13-13-13-13-13-13-13-13-13-13-13-|
Gb|-14-14-14-14-14-14-14-14-14-14-14-14-14-14-14-14-14-14-14-14-14-14-14-14-14-14-|
Db|-------------------------------------------------------------------------------|
Ab|-12-12-12-12-12-12-12-12-12-12-12-12-12-12-12-12-12-12-12-12-12-12-12-12-12-12-|
Db|-------------------------------------------------------------------------------|

Chorus (Guitar 1) Distorted
Eb|--------------------------------------------------|
Bb|--------------------------------------------------|
Gb|--------------------------------------------------|
Db|-0-0-0--0-0-0--0-0-0--0-0-0--0-3-3--3-3--5-5--7-7-|
Ab|-0-0-0--0-0-0--0-0-0--0-0-0--0-3-3--3-3--5-5--7-7-|
Db|-0-0-0--0-0-0--0-0-0--0-0-0--0-3-3--3-3--5-5--7-7-|

For the intro and the chorus, listen to the c.d carefully to get the right rhythm.


Pre-verse

(Guitar 2) Distorted
Eb|--------|
Bb|--------|
Gb|--------|
Db|-8------|
Ab|-8-ring-|
Db|-8------|

(Guitar 1)
Eb|---------------------|
Bb|---13----------------|
Gb|------12---9-----9---|
Db|-8----------10----10-|
Ab|-8-ring--------------|
Db|-8-------------8-----|


Verse
(both guitars)

Eb|--------------------------------------------------------------------|
Bb|--------------------------------------------------------------------|
Gb|----------------------------------------------------------9---------|
Db|------------------------------------------------------9-----10-9----|
Ab|---------------------6p3---8p5-----------------------------------10-|
Db|-1p0-0-0-0-0-0-0-0-0-----0-----0-1p0-0-0-1-3-1-0-/7-7---7-----------|

Pre-chorus
(both guitars)

Eb|---------------------------------------------|
Bb|---------------------------------------------|
Gb|----------9--------------9-------------------|
Db|-----10-----10------10-----10--------10------|
Ab|---------------------------------------------|
Db|-8-8----8-------8-8----8-------10-10----10---|


Bridge part 1
(guitar 1)

Eb|------------------|
Bb|------------------|
Gb|--10-------9------|
Db|---8-ring--8-ring-|
Ab|---8-------8------|
Db|---8-------8------|


(guitar 2) I know this is wrong, but i couldn't work it out exactly.
Eb|---------------------|
Bb|---------------------|
Gb|-10-9----------------|
Db|------10-8-7-8-10-10-|
Ab|---------------------|
Db|---------------------|


Bridge part 2
(both guitars)

Eb|-----------------------------------------------------------------------------|
Bb|-----------------------------------------------------------------------------|
Gb|-9/10-10-10-10/12-12-12------------------------------------------------------|
Db|-------------------------------8--8-8-8-8--10--10-10-10-10--8-8-8-8/10-10-10-|
Ab|-7/8--8--8--8/10--10-10--------8--8-8-8-8--10--10-10-10-10--8-8-8-8/10-10-10-|
Db|-------------------------------8--8-8-8-8--10--10-10-10-10--8-8-8-8/10-10-10-|


Outro
(guitar 1)

Eb|---------17-------15-17----------17-------15-17--|
Bb|----15------15-------------15-------15-----------|
Gb|-14----14------14-------14----14-------14--------|
Db|-------------------------------------------------|
Ab|-------------------------------------------------|
Db|-------------------------------------------------|

Eb|---------17-------15-17----------17-------15-17----------|
Bb|----15------15-------------15-------15-----------15-ring-|
Gb|-14----14------14-------14----14-------14----------------|
Db|---------------------------------------------------------|
Ab|---------------------------------------------------------|
Db|---------------------------------------------------------|

(guitar 2)

Eb|---------17-------15-17----------17-------15-17--|
Bb|----15------15-------------15-------15-----------|
Gb|-14----14------14-------14----14-------14--------|
Db|-------------------------------------------------|
Ab|-------------------------------------------------|
Db|-------------------------------------------------|

Eb|---------17-------15-17----------17-------15-17----------|
Bb|----15------15-------------15-------15-------------------|
Gb|-14----14------14-------14----14-------14--------14-ring-|
Db|---------------------------------------------------------|
Ab|---------------------------------------------------------|
Db|---------------------------------------------------------|
comments
print report bad tab
I want to post or [tab]
guest
You may want to rate the tab now too:
select rating
Please do not post tabs as comments. Select "correction" instead!