Oops, an error
Loading. Please wait.

Aftertaste Tab

version 2
version 2

Whole song

1,082 views 6 this week
no commentswrite comment
1 2 3 4 5
please rate
add to favorites
launch autoscroll
font size
0
reset
how to read this tab
guitar tuner
Autoscroll
slow
fast
+/-
esc
set tempo
stop
Help us to improve Ultimate-Guitar.com Take our survey!
×
Author
Tuning
B F# B E G# C#
drop b 

Intro/Vers:

|-----------------------------------------------|
|-----------------------------------------------|
|-77x77x7------------55x55x---------------------|
|-77x77x7------5h7p5-55x55x-2h3p2-2h3p2---------|
|-55x55x55-7-8-------33x33x-------------5-5-5-5-|
|-----------------------------------------------|


|----------------------------------------------------------|
|----------------------------------------------------------|
|-77x77x7------------55x55x--------------------------------|
|-77x77x7------5h7p5-55x55x--------3-3-3-3-2-2-2-2---------|
|-55x55x55-7-8-------33x33x-1-1-1-1----------------3-3-3-3-|
|----------------------------------------------------------|

Chorus:

|------------------------------------------------------|
|------------------------------------------------------|
|-55x55x-----------------------------------------------|
|-55x55x-22x---------------3/5-2h3p2-----3p2-----------|
|-33x33x-55x-555-3h5p3-1-1-----------3p0-----5p0-3p0-0-|
|------------------------------------------------------|

Bridge 1:

|----------------------------------------------------|
|----------------------------------------------------|
|----------------------------------------------------|
|----------------------------------------------------|
|-----8--8/10/7~------0-3---5-----8---7-------3------| 
|-0-0--0--------0-7-0-----0---0-0---0---10-10---5~3~-|

Bridge 2:

|-----------------------------|
|------------------Let-Ring---|
|-----------------------------|
|-3-3-3-3-2-2-2-2-0~-0~-0~-0~-|
|-3-3-3-3-3-3-3-3-0~-0~-0~-0~-|
|-3-3-3-3-2-2-2-2-0~-0~-0~-0~-|

|-----------------|
|-----------------|
|-3-3-3-3---------|
|-3-3-3-3-3-3-3-3-|
|-1-1-1-1-3-3-3-3-|
|---------3-3-3-3-|

|-----------------------------------------|
|-/13-12----------------------------------|
|-------14-12---------------12------------|
|-------------14-(12)-12h14----(12)-12h14-|
|-----------------------------------------|
|-----------------------------------------|

|----------------------------|
|----------------------------|
|----------------------------|
|---3-----3---8-8-8-10-10-10-|
|---3-----3---8-8-8--7--7--7-|
|-0---0-0---0-8-8-8----------|

/ = slide
h = hammer on
p = pull off
x = dead note

Please rate and leave a comment if you have question or if i made a mistake.
Suggest correction new What's this?
You can suggest a correction to this tab. Community and Mods will review your correction and vote to approve or reject it.
comments
We did not receive enough feedback on this tab! Please rate:
print report bad tab
1 2 3 4 5
guest
You may want to rate the tab now too:
select rating
Please do not post tabs as comments. Select "correction" instead!