Oops, an error
Loading. Please wait.

All Hands On Deck Part 1 Raise The Sail Tab

version 2
version 2

Whole song

1,066 views 1 this week
1 commentread comment
1 2 3 4 5
1 last vote to show rating
add to favorites
launch autoscroll
font size
0
reset
how to read this tab
guitar tuner
Autoscroll
slow
fast
+/-
esc
set tempo
stop
Help us to improve Ultimate-Guitar.com Take our survey!
×
Author
this is how i play the song
played as per usual in Db
with the whole song you have to listen carefully for the mutes and slides
please rate


Verse 1:
|----------------------------|----|--on 4th time--|
|----------------------------|----|---------------|
|----------------------------|----|(12)---(14)----|
|-35535xxxx535x11111111/8888-|(x3)|-10-----12-----|
|-35535xxxx535x11111111/8888-|----|-10-----12-----|
|-35535xxxx535x11111111/8888-|----|-10(x8)-12(x8)-|

Chorus 1: (rhythm)
|------------------------------|
|------------------------------|
|------------------------------|
|------------------------------|
|------------------------------|
|-5(x16)-8(x16)-3(x16)-10(x16)-|(x2)

Chorus 1: (lead)
|----------------------------|----|--------on 4th time--------|
|----------------------------|----|---------------------------|
|-121212121212-151515-141414-|----|-171717171717-191919191919-|
|-x-x-x-x-x-x--x-x-x--x-x-x--|(x3)|-x-x-x-x-x-x--x-x-x-x-x-x--|
|-101010101010-131313-121212-|----|-151515151515-171717171717-|
|----------------------------|----|---------------------------|(x2)

Pre-Verse







Verse 2: (listen carefully for the 12 and 14 on the second part)
|----------------------------|----|--------------|
|----------------------------|----|--on 4th time-|
|-----------------------1010-|----|----12----14--|
|-35535---535x111x1x1x1-x-x--|(x4)|-10----12-----|
|-35535---535x111x1x1x1-8-8--|----|-10----12-----|
|-35535---535x111x1x1x1------|----|-10(x8)12(x8)-|

Chorus 2:(rhythm)
|------------------------------|----|end on|
|------------------------------|----|------|
|------------------------------|----|------|
|------------------------------|----|--0~--|
|------------------------------|----|--0~--|
|-5(x16)-8(x16)-3(x16)-10(x16)-|(x4)|--0~--|

Chorus 2: (lead)
|----------------------------|----|--------on 4th time--------|----|end on|
|----------------------------|----|---------------------------|----|------|
|-121212121212-151515-141414-|----|-171717171717-191919191919-|----|------|
|-x-x-x-x-x-x--x-x-x--x-x-x--|(x3)|-x-x-x-x-x-x--x-x-x-x-x-x--|----|--0~--|
|-101010101010-131313-121212-|----|-151515151515-171717171717-|----|--0~--|
|----------------------------|----|---------------------------|(x4)|--0~--|

Bridge:
|----------------------------|
|----------------------------|
|---10/12---17\14-10/12------|
|-xxx--x----x--x--x--x-xxxxx-|
|-xx8-/10---15\12-8-/10xxxxx-|
|-xx-------------------xxxxx-|(x8)

Outro: (until end)
|--------------------------|
|--------------------------|
|--10/12-17\14-10/12-9/10--|
|--x--x--x--x--x--x--x-x-x-|
|--8-/10-15\12-8-/10-7/8-x-|
|------------------------x-|

End On:
|----|
|----|
|----|
|-0~-|
|-0~-|
|-0~-|
Suggest correction
Give kudos to tab author, rate the tab!
1 2 3 4 5
comments
print report bad tab
1 comment total.
0 reply
ibanezeric82 103 Jul 11, 2009 01:25 AM

I think you mean Db.

guest
You may want to rate the tab now too:
select rating
Wanna post a correction for this tab? Suggest correction