Oops, an error
Loading. Please wait.

All The Rage Tab

version 1
version 1

Intro

Whole song

Interactive

2,790 views 1 this week
2 commentsread comments
1 2 3 4 5
accurate
x 5
add to favorites
launch autoscroll
font size
0
reset
how to read this tab
guitar tuner
Autoscroll
slow
fast
+/-
esc
set tempo
stop
Help us to improve Ultimate-Guitar.com Take our survey!
×
Author
this is my first tab but hey :D

tuning is drop D flat so drop D tehn all strings down half a step

e|--------------------------------------------------------|
b|------5--------------------------------------------8-7--|
g|-------------7------4-----5-4----7-5----------7-------7-|
d|--------4h5-----4h5-----------5------5---4-5------------|
a|-----------------------3--------------------------------|
D|---2----------------------------------------------------|

amazing riff not sure if i got the middle bit wrong because i know theres a bit thats 
but its a go....please rate and leave feedback

ASH
Suggest correction
comments
print report bad tab
2 comments total.
0 reply
shluke 10 wrote on June 14 2005, 12:00 am

hey dude i have looked at ur tab and ur rite i dont think the middle part is correct i have come up with an alternative....

Eb:------------------------------------------------------------
Bb:----5--------------------------------------------8-7--------
Gb:----------7-----4--------4-----7-----------7---------7------
Db:------4/5---4/5------------4-5---5-----4-5---5--------------
Ab:------------------3-----------------------------------------
Db:--2---------------------------------------------------------

this is also my first tab so its probably wank but let me know if its n e better!?!?!

Shluke

0 reply
LessThanLuke 1,606 wrote on July 4 2005, 12:00 am

This was how I was playing it originally, but Kris plays it up on the 7th/9th/11th frets of Ab, Db, and Gb.

Darran plays that low Eb on the 2nd fret of the low Db string.

guest
You may want to rate the tab now too:
select rating
Please do not post tabs as comments. Select "correction" instead!