Oops, an error
Loading. Please wait.

All The Rage Bass Tab

version 2
version 2

Whole song

Interactive

2,004 views 3 this week
1 commentread comment
1 2 3 4 5
excellent!
x 3
add to favorites
launch autoscroll
font size
0
reset
guitar tuner
Tab Pro tools
  • play this tab
  • loop segment
  • change instrument
  • show fretboard
  • metronome
Autoscroll
slow
fast
+/-
esc
set tempo
stop
Contributor
-------------------------------------------------------------------------------
		   All the Rage - Funeral for A Friend
-------------------------------------------------------------------------------

 Tabbed By : dvanwyk
 e-mail: dustinvanwyk@yahoo.com

 Tuning:Drop D Falt (Db Ab Db Gb)
 
  Verse x4 (0.06)
Gb|---------------------------------------|
Db|---------------------------------------|
Ab|7777777777777777-3333333333333333------|
Db|---------------------------------------|

  Pre-Chorus
Gb|----------------------------------------------------------------|
Db|------------------------77-5----------------------------77-5----|
Ab|----------------------------------------------------------------|
Db|2-22xx--2-22xx--2-22xx----------2-22xx--2-22xx--2-22xx----------|

Gb|----------------------------------------------------------------------|
Db|------------------------7-5-4h5-----------------------------7-5-4h5---|
Ab|----------------------------------------------------------------------|
Db|2-22xx--2-22xx--2-22xx-------------2-22xx--2-22xx--2-22xx-------------|

Gb|---------------------------------------------------------|
Db|-----------------7-5-4h5--------------------9-7-5h7------|
Ab|3-33--3-33-----------------3-33--3-33--------------------|
Db|------------2~-------------------------2~----------------|

  Chorus
Gb|---------------------------------------------------------------------------------|
Db|---------------------------2h4-----------------------------------------2h4-------|
Ab|3333333333333333-55555555------2h3--3333333333333333-5555555555555555------2h3---|
Db|---------------------------------------------------------------------------------|

Gb|--------------------------------------------------------------------------|
Db|--------------------------------------------------------------------------|
Ab|3333333333333333-5555555555555555-3333333333333333-5555555555555555-------|
Db|---------------------------------------------------------------------2~---|

  Verse x4 
Gb|---------------------------------------|
Db|---------------------------------------|
Ab|7777777777777777-3333333333333333------|
Db|---------------------------------------|

  Pre-Chorus
Gb|----------------------------------------------------------------------|
Db|------------------------7-5-4h5-----------------------------7-5-4h5---|
Ab|----------------------------------------------------------------------|
Db|2-22xx--2-22xx--2-22xx-------------2-22xx--2-22xx--2-22xx-------------|

Gb|---------------------------------------------------------|
Db|-----------------9-7-5h7--------------------9-7-5h7------|
Ab|3-33--3-33-----------------3-33--3-33--------------------|
Db|------------2~-------------------------2~----------------|

  Chorus
Gb|---------------------------------------------------------------------------------|
Db|---------------------------2h4-----------------------------------------2h4-------|
Ab|3333333333333333-55555555------2h3--3333333333333333-5555555555555555------2h3---|
Db|---------------------------------------------------------------------------------|

Gb|--------------------------------------------------------------------------|
Db|--------------------------------------------------------------------------|
Ab|3333333333333333-5555555555555555-3333333333333333-5555555555555555-------|
Db|---------------------------------------------------------------------2~---|

  Bridge
Gb|---------------------------------------------------------------------------|
Db|---------------------------------------------------------------------------|
Ab|----------------------------------3333333333333333-5555555555555555--------|
Db|2222222222222222-5555555555555555------------------------------------------|

Gb|---------------------------------------------------------------------------|
Db|---------------------------------------------------------------------------|
Ab|----------------------------------3333333333333333-3333333333333333--------|
Db|2222222222222222-5555555555555555------------------------------------------|

  Outro x4 (3.14)
Gb|---------------------------------------|
Db|---------------------------------------|
Ab|7777777777777777-3333333333333333------|
Db|---------------------------------------|


  End off
Gb|-----------|
Db|-----------|
Ab|-----------|
Db|2----------|
comments
We did not receive enough feedback on this tab! Please rate:
print report bad tab
1 2 3 4 5
1 comment total.
0 reply
TommyGun91 wrote on March 28 2009, 01:33 pm

100% correct. Nice one (Y)

I want to post or [tab]
guest
You may want to rate the tab now too:
select rating
Please do not post tabs as comments. Select "correction" instead!