Oops, an error
Loading. Please wait.

Alvarez Bass Tab

version 1
version 1

Whole song

650 views 1 this week
1 commentread comment
1 2 3 4 5
2 more votes to show rating
add to favorites
launch autoscroll
font size
0
reset
guitar tuner
Autoscroll
slow
fast
+/-
esc
set tempo
stop
Help us to improve Ultimate-Guitar.com Take our survey!
×
Author
-------------------------------------------------------------------------------
			Alvarez - Funeral for A Friend 
-------------------------------------------------------------------------------

 Tabbed By : dvanwyk
 e-mail: dustinvanwyk@yahoo.com

 Tuning:Drop D flat (Db Ab Db Gb)
 
  Intro x2
Gb|-------------------|
Db|-------------------|
Ab|-------------------|
Db|6~------2~---------|

 Verse x4 "The stars will be your...."
Gb|---------------------------------------|
Db|---------------------------------------|
Ab|---------------------------------------|
Db|6666666666666666-2222222222222222------|

  Pre-Chorus x2
Gb|---------------------------------------|
Db|---------------------------------------|
Ab|---------------------------------------|
Db|444-444-444-444---222-222-222-222------|

  Chorus x2
Gb|-------------------|
Db|-------------------|
Ab|-------------------|
Db|6~------2~---------|

 Verse x2
Gb|---------------------------------------|
Db|---------------------------------------|
Ab|---------------------------------------|
Db|6666666666666666-2222222222222222------|

 Pre-Chorus x2 "It burns and leaves...."
Gb|---------------------------------------|
Db|---------------------------------------|
Ab|---------------------------------------|
Db|444-444-444-444---222-222-222-222------|


  Chorus x4
Gb|-------------------|
Db|-------------------|
Ab|-------------------|
Db|6~------2~---------|

  Bridge x2
Gb|---------------------------------------------------------------------------|
Db|---------------------------------------------------------------------------|
Ab|7777777777777777/9999\77777777777777777------------------------------------|
Db|----------------------------------------4444444444444444-666666666666666---|
  x1
Gb|---------------------------------------|
Db|---------------------------------------|
Ab|7777777777777777/0\7777777777777777----|
Db|---------------------------------------|
  
  Outro x4 "Just like the good old days...."
Gb|-----------------------------------------------------------------------|
Db|-----------------------------------------------------------------------|
Ab|2222222222222-2h4------------------------------------------------------|
Db|------------------4444444444444444-2222222222222222-4444444444444444---|
  x1
Gb|---------------------------------------|
Db|---------------------------------------|
Ab|2222222222222-2h4----------------------|
Db|------------------4444444444444444-2~--|
Suggest correction
Give kudos to tab author, rate the tab!
1 2 3 4 5
comments
print report bad tab
1 comment total.
0 reply
TommyGun91 903 Sep 12, 2009 08:57 AM

Great tab!
Only 2 things

Chorus goes like this

Chorus x4
Gb|-------------------------|
Db|-------------------------|
Ab|-------------------------|
Db|6~---6~---2~---2~---4~---|

It's very faint but you can hear it.

Secondly, The rhythm is wrong on the outro, it's not a constant strumming, the bass strums go with the bass drum :)

Apart from that perfect tab. I'll rate 5 stars anyway :)

guest
You may want to rate the tab now too:
select rating
Wanna post a correction for this tab? Suggest correction