Oops, an error
Loading. Please wait.

Bend Your Arms To Look Like Wings Bass Tab

version 1
version 1

Whole song

928 views 1 this week
no commentswrite comment
1 2 3 4 5
please rate
add to favorites
launch autoscroll
font size
0
reset
guitar tuner
Autoscroll
slow
fast
+/-
esc
set tempo
stop
Help us to improve Ultimate-Guitar.com Take our survey!
×
Author
PodS 70
Tabbed by PodS-check out my other tabs and if you like emo e-mail me on
Penny_dreadfullz@hotmail.com

Funeral for a friend-Bend your arms to look like wings
Album: Casually dressed and deep in conversation.
Please rate this
Key:Dropped D
123 4 321: Correct fingers to use [left]
i m t =index finger, middle finger, third finger.
r=let ring

Like my other songs this looks hard but its not. I have put finger positions on left
and right hand, you do not need to follow them but you do not need to follow them but
they hay help.

Intro:
[Note, the intro startes when Matt Davies says "I" of "I hope you can save our
wounded hearts" It does not follow the guitar intro, it is a late bass intro]

   i  m t i  m  i  m t i  m   i  m t  i m  i  m t  i  m  i
G|--------------------------------------------------------------|
D|--------------------------------------------------------------|
A|--------------0--0-0---------------------0--0-0---------------| x1
D|-4--4-4-0r-0r--------2r-2r--4--4-4--0-0----------2--2--4r-----|
   3  3 3 0  0  0  0 0 1  1   3  3 3  0 0  0  0 0  1  1  3

Main riff:
[Note, This riff is played after intro and after verses]

   i  m  i m i m i  m  i m i m i  m  i m i m i  m  i m i m
G|---------------------------------------------------------|
D|---------------------------------------------------------|
A|-----------------------------0--0--0-0-0-0---------------|x4
D|-4--4--4-4-4-4-0--0--0-0-0-0---------------2--2--2-2-2-2-|
   3  3  3 3 3 3 0  0  0 0 0 0 0  0  0 0 0 0 1  1  1 1 1 1

after this is played the first four times it ends on a
   i/m
G|----
D|---- before the verse comes in
A|----
D|-0r-
   0

Verse: [Note this is simple as Gareth Davies (the bassist) does backing vocals]
[Second note: Remember to leave space for guitar

   i m t  i m t  i m t  i m t i m t
G|----------------------------------|
D|----------------------------------|
A|----------------------------------| x4
D|-0-0-0--0-0-0--0-0-0--2-2-2-2-2-4-|
   0 0 0  0 0 0  0 0 0  1 1 1 1 1 3

Then, under "Was just enough to cut the air from your lungs"
[Not as mentiond above leave space for guitar, this is important for effect.

   i m  i m  i m  i m  i m  i m  i m  i m
G|----------------------------------------|
D|----------------------------------------|
A|----------------------------------------|
D|-0-0--0-0--0-0--0-0--0-0--0-0--0-0--0-0-|
   0 0  0 0  0 0  0 0  0 0  0 0  0 0  0 0

End Alteration/ outro:
[Note, this is played when Matt Davies sings "And paper cuts, and bloody hands,
in the middle, they will meet.]
[I have put the origional riff in to show the blend]

     i  m  i m i m i  m  i m i m i  m  i m i m i  m  i m i m
G|------------------------------------------------------------|
D|------------------------------------------------------------|
A|-------------------------------0--0--0-0-0-0----------------|
D|---4--4--4-4-4-4-0--0--0-0-0-0---------------2--2--2-2-2-2--|
     3  3  3 3 3 3 0  0  0 0 0 0 0  0  0 0 0 0 1  1  1 1 1 1

   i  m  i m i m i  m  i m i m i  m  i m i m i  m  i m i m
G|---------------------------------------------------------|
D|---------------------------------------------------------|
A|-0--0--0-0-0-0---------------3--3--3-3-3-3---------------| x2
D|---------------3--3--3-3-3-3---------------5--5--5-5-5-5-|
   0  0  0 0 0 0 1  1  1 1 1 1 1  1  1 1 1 1 3  3  3 3 3 3

Then back into main riff

Ending:

   i  m  i  m  i  m  i  m
G|-------------------------|
D|-------------------------|
A|-------------------------| x4
D|-4--4--4--0--2--2--2--6--|
   3  3  3  0  1  1  1  4
Suggest correction
What's this?
You can suggest a correction to this tab. Community and Mods will review your correction and vote to approve or reject it.
comments
We did not receive enough feedback on this tab! Please rate:
print report bad tab
1 2 3 4 5
guest
You may want to rate the tab now too:
select rating
Please do not post tabs as comments. Select "correction" instead!