Oops, an error
Loading. Please wait.

Broken Foundation Bass Tab

342 views 1 this week
no commentswrite comment
1 2 3 4 5
1 last vote to show rating
add to favorites
launch autoscroll
font size
0
reset
guitar tuner
Autoscroll
slow
fast
+/-
esc
set tempo
stop
Help us to improve Ultimate-Guitar.com Take our survey!
×
Author
Difficulty
novice
Funeral for a Friend
Broken Foundation
Welcome Home Armageddon
Bassist - Richard Boucher
Standard 5 tuning - B E A D G 

Intro
G|-----------------------------|
D|-----------------------------|
A|--------------------------4--|
E|-----------------------2-4---|
B|444444444444444444444-4------|

G|---------------------------------------------------|
D|---------------------------------------------------|
A|-------------------4-------------------------------|
E|----------------2-4----------------777666----------|
B|4-44-4-44-4-44-4----4-44-4-44-4-44-------7776665554|

Verse - Follow the beat of the bass drum with these 4's
G|-------------------------|
D|-------------------------|
A|-------------------------|
E|6\4/6---6\4/6------------|
B|-----444-----44-44-444-44|X4

Pre-chorus
G|--------------------------|
D|-----------(Not 100% sure)|
A|--------------------------|
E|/7---5---5/7\5-5/7\5------|
B|--------------------------|

Chorus - Follow the beat of the bass drum again
G|----------------------------------------|
D|----------------------------------------|
A|----------------------------------------|
E|---------7-77-7-7-9-99-9-9--------------|
B|4-44-4-4-------------------777-77-666-66| X2

Post Chorus
G|-------------------------------------|
D|-------------------------------------|
A|-------------/6HOLD\0----------------|
E|------/11HOLD--------777666----------|
B|4HOLD----------------------7776665554|

Repeat:
Verse
Pre-Chorus
Chorus

Bridge
G|---------------------------------|
D|---------------------------------|
A|---6--4--2--6--4--2--111111111111|(Ones)
E|7--------------------------------|
B|---------------------------------|

Solo
G|-----------------------|
D|-----------------------|
A|-----------------------|
E|6/4\6---6/4\6----------|
B|-----444-----4444444444|
Repeat until 2:28

G|------------------------------------------------------------|
D|------------------------------------------------------------|
A|------------------------------------------------------------|
E|6/4\6----------------6/4\6----------------777666------------|
B|-----444-444-4-44-444-----444-444-4-44-444------7776665554\0|
The beat changes here 

Pre Final Chorus
G|-------------------|
D|-------------------|
A|-------------------|
E|--------7-666------|
B|R-E-S-T------7-666-|

Chorus X3

Outro
G|------------------------|
D|------------------------|
A|-----4-----------4------|
E|-2-4---4-2---2-4---4-2--|
B|4----------4----------4/|

Please rate!
Thanks. 
Suggest correction
Give kudos to tab author, rate the tab!
1 2 3 4 5
comments
print report bad tab
guest
You may want to rate the tab now too:
select rating
Wanna post a correction for this tab? Suggest correction