Oops, an error
Loading. Please wait.

Built To Last Tab

version 1
version 1

Whole song

Interactive

804 views 1 this week
no commentswrite comment
1 2 3 4 5
please rate
add to favorites
launch autoscroll
font size
0
reset
how to read this tab
guitar tuner
Autoscroll
slow
fast
+/-
esc
set tempo
stop
Help us to improve Ultimate-Guitar.com Take our survey!
×
Author
Difficulty
Tuning
novice
C# G# C# F# A# D#
Built To Last
Funeral For A Friend
Your History Is Mine, 2009

GTR1 - C#G#C#F#A#D#
GTR2 - C#G#C#F#A#D#

Intro 
GTR1
|---------------|-----------------|-/8-0-10-0-------|-15-0-14-0----0-17-0-15-15-14-14----|
|-7-8-7---------|-/8-0-10-0-7-8---|-----------7-8---|-----------15--------------------15-|
|-------9-7---7-|---------------7-|---------------9-|------------------------------------|
|-----------9---|-----------------|-----------------|------------------------------------|
|---------------|-----------------|-----------------|------------------------------------| x2
|---------------|-----------------|-----------------|------------------------------------|

GTR2
|---------------|-----------------|-----------------|------------------------------------|
|---------------|-----------------|-----------------|------------------------------------|
|---------------|-----------------|-7---------------|------------------------------------|
|-0------2------|-5-------0-------|-4--------2------|-5--------------2-------------------|
|-0-x6---2-x10--|-5-x6----0-x10---|-5-x6-----2-x10--|-5-x6-----------2-x10---------------| x2
|-0------2------|-5-------0-------|-0--------2------|-5--------------2-------------------|

Then
GTR1
|---------------------|
|-7--8--10---7--8--10-|
|---------------------|
|---------------------|
|---------------------|
|---------------------|

GTR2
|-------|
|-------|
|-------|
|-0-----|
|-0-x16-|
|-0-----|

Verse
GTR1                              1,3,4                                    2
|-------------------------------------------|----------------------------------|
|-------------------------------------------|----------------------------------|
|-------------------------------------------|----------------------------------|
|-2----0----5-5-5-5-5-5-5-5-----------------|-2----0----5-5-5-5-5-5-5-5-5------|
|-2-x5-0-x5-5-5-5-5-5-5-5-5-5-0-5-0-5-7---0-|-2-x5-0-x5-5-5-5-5-5-5-5-5-5----0-| 
|-2----0----5-5-5-5-5-5-5-5-5-0---0-------0-|-2----0----5-5-5-5-5-5-5-5-5----0-|

GTR2                              1,3,4                                   2
|-------------------------------------------|----------------------------------|
|-------------------------------------------|----------------------------------|
|-------------------7-7---------------------|-------------------7-7------------|
|-2----0--------5-5-----5-5-----5---5-7-5---|-2----0--------5-5-----5-5--4---5-|
|-2-x5-0-x5-3-3-------------5-0---0-------0-|-2-x5-0-x5-3-3--------------------|
|-2----0--------------------5-0---0-------0-|-2----0---------------------------|

Pre Chorus
GTR1
|------|
|------|
|------|
|-5----|
|-5-x8-|
|-5----|

|------|
|------|
|-9----|
|---x8-|
|-7----|
|------|

Chorus
GTR1
|-------------------------|
|-------------------------|
|-------------------------|
|-5-----2-----10----12----|
|-5-x16-2-x16-10-x8-12-x8-|
|-5-----2-----10----12----|

GTR2
|-15----------|----------------|-------------|-------------|-----------------|-----------------|
|----12-13-15-|-------12-13-15-|-12-13-12----|-12-13-12----|-12-13-15--------|-12-13-15--------|
|-------------|-12-12----------|----------12-|----------12-|----------11--12-|----------11--12-|
|-------------|----------------|-------------|-------------|-----------------|-----------------|
|-------------|----------------|-------------|-------------|-----------------|-----------------|
|-------------|----------------|-------------|-------------|-----------------|-----------------|

Then
GTR1
|------|
|------|
|------|
|-2----|
|-2-x4-|
|-2----|

|------|
|------|
|-9----|
|-9-x4-|
|-7----|
|------|

Repeat Intro
Repeat Verse
Repeat Pre Chorus
Repeat Chorus Twice
Bridge
GTR1 
|------------------|----|-----------------|----|---|
|-----7--------7---|----|-----------------|----|---|
|---9---7----9-----|----|---11-12-9-11----|----|-9-|
|----------5-----5-|----|--------------12-|----|---|
|-7----------------|-x2-|-7---------------|-x2-|-7-|
|------------------|----|-----------------|----|---|

Repeat Intro
Repeat Chorus Twice

Suggest correction
Give kudos to tab author, rate the tab!
1 2 3 4 5
comments
print report bad tab
guest
You may want to rate the tab now too:
select rating
Wanna post a correction for this tab? Suggest correction