Oops, an error
Loading. Please wait.

Bullet Theory Tab

version 1
version 1
5,289 views 3 this week
5 commentsread comments
1 2 3 4 5
x 10
add to favorites
launch autoscroll
font size
0
reset
how to read this tab
guitar tuner
Autoscroll
slow
fast
+/-
esc
set tempo
stop
Help us to improve Ultimate-Guitar.com Take our survey!
×
Author
INTRO 
                                                           C# PALM MUTE
E|-------------------------------------------------------
B|-------------------------------------------------------
G|-9-9-9-8-8-8----------------------6-6-6---------------- PALM MUTE
D|-------------9-9-9-9-9-9—9-9-9--------6-6-6-6-6-6-6-6--
A|-------------------------------------------------------
D|-------------------------------------------------------

   C# PALM MUTE                                 C#
E|--------------------------------------------------------
B|--------------------------------------------------------
G|-9-9-9-8-8-8---------------------6-6-6------------------ Gently release
D|--------------9-9-9-9-9-9—9-9-9---------6-6-6-6-6-6-6-6- palm mute
A|--------------------------------------------------------
D|--------------------------------------------------------
 
   A               B                                     C#
E|---------------------------------------------------------
B|----------------------------------------------------9----
G|-9-9-9-8-8-8---------------------6-6-6-- -9p8---8h9------
D|--------------9-9-9-9-9-9--9-9-9----- -6------9----------
A|---------------------------------------------------------
D|---------------------------------------------------------

   A                B                                  C#(Let ring)
E|---------------------------------------------------------
B|---------------------------------------------------------
G|-9-9-9-8-8-8--------------------6-6-6--------------------
D|-------------9-9-9-9-9-9--9-9-9-------6~-----------------
A|---------------------------------------------------------
D|---------------------------------------------------------


VERSE
     C#                     C#                          C#
E|------------------------------------------------------------------
B|------------------------------------------------------------------
G|-----------6------------6--------6-------6----------6-----6--8----
D|-----------------9------------9----------------9------------------
A|------------------------------------------------------------------
D|------------------------------------------------------------------

Guitar 2 (while Guitar 1 plays riff above)
E|----------------------------------------------
B|----------------------------------------------
G|----------4------4----------6------6--4--6----
D|-------4------4----------6------6-------------
A|-2--2------2------2--4------4-----------------
D|----------------------------------------------


CHORUS

   A                  B                                       C#
E|---------------------------------------------------------
B|---------------------------------------------------------
G|-9-9-9-8-8-8----------------------6-6-6------------------
D|--------------9-9-9-9-9-9--9-9-9---------6~--------------
A|---------------------------------------------------------
D|---------------------------------------------------------

MIDDLE BIT

E|--------------------------------
B|-9h8----9h8----9h8----9h8------- What the background sounds like
G|-------------------------------- 
D|-------------------------------- Guitar 2 plays the chord C# but 
A|-------------------------------- with  pick scrapes and feedback
D|--------------------------------
                                                              (C#)
E|--------------------------------------------------------
B|--------------------------------------------------------
G|-9-9-9-8-8-8---------------------6-6-6------------------
D|--------------9-9-9-9-9-9—9-9-9---------6-6-6-6-6-6-6-6-
A|--------------------------------------------------------
D|--------------------------------------------------------

END

E|--------------------------------------
B|---------------9-----------------9----
G|-9h8-----8h9-------9h8-----8h9--------
D|------9-----------------9-------------
A|--------------------------------------
D|--------------------------------------
Suggest correction
comments
print report bad tab
5 comments total. Showing first comments.
0 reply
LochYoga 30 Dec 20, 2003 12:00 AM

This is the REAL chorus:-
A B C#
E|----------------------------------------------------------
B|------------------------------------------------------9---
G|-9-9-9-8-8-8----------------------6-6-6-----9h8---8h9-----
D|--------------9-9-9-9-9-9--9-9-9---------6------8---------
A|----------------------------------------------------------
D|----------------------------------------------------------

0 reply
indiekid 130 Jan 15, 2004 12:00 AM

when you're playin the 9th and 6th frets on the D string it sounds better if you pick the string below (8th and 6th frets) at the same time...

e|---------------------------------------------------------
B|---------------------------------------------------------
G|-9-9-9-8-8-8---8---8---8----8---6-6-6---6---6---6---6----
D|-------------9-9-9-9-9-9--9-9-9-------6-6-6-6-6-6-6-6----
A|---------------------------------------------------------
E|---------------------------------------------------------
pm ........................................................

or at leats thats what i think

0 reply
Tom Martin 135 Feb 28, 2004 12:00 AM

This song is supposed to be played in Drop-Db tuning

guest
You may want to rate the tab now too:
select rating
Wanna post a correction for this tab? Suggest correction