Oops, an error
Loading. Please wait.

Bullet Theory Bass Tab

version 2
version 2
228 views 1 this week
no commentswrite comment
1 2 3 4 5
please rate
add to favorites
launch autoscroll
font size
0
reset
guitar tuner
Autoscroll
slow
fast
+/-
esc
set tempo
stop
Help us to improve Ultimate-Guitar.com Take our survey!
×
hey there    this tab is very different from anything else on the site but after 
to the song carefully i really think this is right

some timings are tricky so ill help as much as i can

intro 0:14

|-------------------------------------------------|
|-------------------------------------------------|
|-------------------------------------------------| end of the guitar break
|-5--0-5-0-0--0-0--5-5-5-7-6-5-0_______  x1 & 1/2-|

verse 0:28

|-------------------------------|
|-------------------------------|
|-------------------------------| x4
|-0-0-0----3-3----3-3----3---3--|

pre chorus 0:42

|---------------------------|
|---------------------------|
|---------------------------|  x4
|-0----3-3----3-3----3-7-6--|

chorus 0:56

|----------------------------------|
|----------------------------------|
|----------------------------------| x1 & 1/2
|-5--0-5-0-0--5-5-5-7-6-5-0_______-|

verse 1:10

|--------------------------|
|--------------------------|
|--------------------------|
|-0-0-0----3-3----3-3----3-|

pre chorus 1:24

|--------------------------|
|--------------------------|
|--------------------------| x4
|-0----3-3----3-3----3-7-6-|

chorus 1:38

|---------------------------------------|
|---------------------------------------|
|---------------------------------------| x4
|-5--0-5-0-0--0-0--5-5-5-7-6-5-0--------|_____

bridge 2:06

|-------------------------------|
|-------------------------------|
|-------------------------------| x2
|-0-12\0--12\0--12\0-12\0-0-0-0-|

|-----------------------------------|
|-----------------------------------|
|-----------------------------------| x1
|-0h1/12-0h1/12-0h1/12-0h1/12-0-0-0-|

|--------------------------------|
|--------------------------------|
|--------------------------------| x1
|-0-12\0--12\0--12\0--12\0-0-0-0-|

pre chorus 2  2:20

|---------------------|
|---------------------|
|---------------------| x8
|-0--0--0--0--3-3-3-3-|

chorus 2:55

|--------------------------------------|
|--------------------------------------|
|--------------------------------------| x4
|-5--0-5-0-0--0-0--5-5-5-7-6-5-0-------|____
Suggest correction
Give kudos to tab author, rate the tab!
1 2 3 4 5
comments
print report bad tab
guest
You may want to rate the tab now too:
select rating
Please do not post tabs as comments. Select "correction" instead!