Oops, an error
Loading. Please wait.

Bullet Theory Tab

version 3
version 3
2,933 views 3 this week
1 commentread comment
1 2 3 4 5
accurate
x 6
add to favorites
launch autoscroll
font size
0
reset
how to read this tab
guitar tuner
Autoscroll
slow
fast
+/-
esc
set tempo
stop
Help us to improve Ultimate-Guitar.com Take our survey!
×
Contributor
------------------------------------------------------------------------
                         BULLET THEORY - funeral for a friend
------------------------------------------------------------------------


tabbed by: scousertommy
e-mail: scouser_tommy@hotmail.com


The intro here I am positive is 100% accurate, I havent seen any other correct tabs
for it around. The sections in which both guitars play at once are divided by the *********s

Enjoy!




Tuning: Db Ab Db Gb Bb eb (drop D, a semi-tone down)


Intro (repeat X2)


eb|-------------------------------------------------------------------------|
Bb|-------------------------------------------------------------------------|
Gb|10-10-10-9-9-9------------------7-----7-------------7-7-7----------------|
Db|--------------10-10-10-10-10-10-10-10-10-7-10-10-10-------7-7-7-7-7-7-7-7|
Ab|----------------------------------------------------------5-5-5-5-5-5-5-5|
Db|-------------------------------------------------------------------------|
  PM........................................................................



****************************************************************************
Chorus riff (play immediately after intro riff, w/out lyrics, then after the bridge, w/ lyrics)

    Guitar 1: (X2)


eb|----------------------------------------------------------------------|   
Bb|10-10-10-9-9-9------------------------------------------------------10|
Gb|--------------10==10=10-10-10-10-7-10-10-10-7-7-7------10h9-----9-10--|
Db|---------------------------------------------------7=------10-10------|
Ab|---------------------------------------------------5=-----------------|
Db|---------------------------------------------------0====--------------|


eb|-----------------------------------------------------------------|
Bb|--10-10-10-9-9-9-------------------------------------------------|
Gb|----------------10==10=10-10-10-10-7-10-10-10-7-7-7-6=-----------|
Db|------------------------------------------------------------7=---|
Ab|------------------------------------------------------------5=---|
Db|------------------------------------------------------------0=---|

   

     + Guitar 2: (repeat X4)

eb|-----------------------------------------------------------------------|
Bb|-----------------------------------------------------------------------|
Gb|--------------5=-------------------------------------------------------|
Db|--8-8-8-8-8-8-3=---------------------0-3-3-3-5-5-5-0==-----------------|
Ab|--8-8-8-8-8-8-3=---------------------0-3-3-3-5-5-5-0==-----------------|
Db|--8-8-8-8-8-8-3=---------------------0-3-3-3-5-5-5-0==-----------------|

chorus lyrics:

Its over,
its only over,
its only over when we say

(Note on chorus riff: when the chorus guitar part is played immediately after the intro
riff, it is NOT repeated. i.e. You play it only once, and then go straight into the verse.)
****************************************************************************
Verse

     Guitar 1: (X2)


eb|-----------------------------------------------------------------------|
Bb|-----------------------------------------------------------------------|
Gb|---------7-----5-----7-----5---7~~~~~~~--------5-----7-----5-------7-9-|
Db|-----------------------------------------------------------------------|
Ab|-----------------------------------------------------------------------|
Db|---0-0-0---0-0---0-0---0-0---0-----------0-0-0---0-0---0-0---0-0-0-----|
                                                                           

     + Guitar 2: 


eb|---------------------------------------------------------------------|
Bb|---------------------------------------------------------------------|
Gb|---------------------------------------------------------------------|
Db|-------9+-----------------------------------9+-----------------------|
Ab|-------9+-----------------------------------9+-----------------------|
Db|-0-0-0-9+-------------------------------0-0-9+-----------------------|
 PM . . .                               PM . . 
  

eb|-----------------------------------------------------------------------|
Bb|-----------------------------------------------------------------------|
Gb|-----------------------------------------------------------------------|
Db|-------9+----9+-----------------------------9+----9+----9+----9+----0=-|
Ab|-------9+----9+-----------------------------9+----9+----9+----9+----0=-|
Db|---0-0-9+0-0-9+-------------------------0-0-9+0-0-9+0-0-9+0-0-9+0-0-0=-|
  PM  . .   . .                         PM . .   . .   . .   . .   . .


Verse lyrics:

1. Who shot the bullet
   that killed the air tonight?
   without a thought
   without a reason

2. The smoke and mirrors
   The lies that wind your tongue
   Was this oppression what we wanted?
   Or what we needed?

****************************************************************************
Bridge

Guitar 1:  (X2)


eb|-----------------------------------------------------------------------|
Bb|-----------------------------------------------------------------------|
Gb|---------7-----5-----7-----5---7~~~~~~~--------5-----7-----5-------7-9-|
Db|-----------------------------------------------------------------------|
Ab|-----------------------------------------------------------------------|
Db|---0-0-0---0-0---0-0---0-0---0-----------0-0-0---0-0---0-0---0-0-0-----|
                                                                           

     + Guitar 2:  (X2)


eb|---------------------------------------------------------------------|
Bb|---------------------------------------------------------------------|
Gb|---------------------------------------------------------------------|
Db|---------------------------------------------------------------------|
Ab|---0-3-5-0-3-5-0-5-7-0-5-7-0-5-8-7-0-3-5-0-3-5-0-5-7-0-5-7-0-5-8-7---|
Db|---------------------------------------------------------------------|

     ...There may be a slight palm mute here all the way through this riff.


Bridge lyrics:

Take a gun called hate
up against your heart
and pull the trigger (X2)

*****************************************************************************

Notation:

|  PM.....    palm mute
|  ==         let note ring out
|  /          slide up
|  \          slide down
|  h          hammer-on
|  p          pull-off
|  ~          vibrato
|  +          harmonic
|  x          Mute note




Sorry, Don't have the interlude or the outro for you (yet).   :(


All feedback welcome at:   scouser_tommy@hotmail.com
Suggest correction new What's this?
You can suggest a correction to this tab. Community and Mods will review your correction and vote to approve or reject it.
comments
print report bad tab
1 comment total.
0 reply
ElexP 13 wrote on February 15 2005, 12:00 am

Hmmm. Hmm. Hmm. Good. Hold on a sec! WE know who YOU are........

guest
You may want to rate the tab now too:
select rating
Please do not post tabs as comments. Select "correction" instead!