Oops, an error
Loading. Please wait.

Bullet Theory Tab

version 4
version 4
3,014 views 15 this week
no commentswrite comment
1 2 3 4 5
x 3
add to favorites
launch autoscroll
font size
0
reset
how to read this tab
guitar tuner
Autoscroll
slow
fast
+/-
esc
set tempo
stop
Help us to improve Ultimate-Guitar.com Take our survey!
×
Author
Difficulty
novice
-----------------------------------------------------------------------------
                BULLET THEORY- Funeral for a friend- FFAF
-----------------------------------------------------------------------------
Tabbed by: Joeking
Email: joe.strange@btinternet.com - i this is a really cool song, e-mail me
if you think any of it is wrong.by theway its my first tab! someone e-mail me
a really good roses for the dead and Alvarez tab if you can i  would be grateful!
It took me 4 hours to tab this!listen to the song while playing this and it should
fit in. ty
                                      


   INTRO
  (guitar 1) 
eb|-------------------------------------------------------------------------|
Bb|-------------------------------------------------------------------------|
Gb|-10-10-10-9-9-9-----------------9-----9------------7-7-7-----------------|
Db|----------------10-10-10-10-10-10-10-10-7-10-10-10-------7-7-7-7-7-7-7-7-|
Ab|---------------------------------------------------------5-5-5-5-5-5-5-5-|
Db|-------------------------------------------------------------------------|
   
eb|-------------------------------------------------------------------------|
Bb|-------------------------------------------------------------------------|
Gb|-10-10-10-9-9-9-----------------9-----9------------7-7-7-----------------|
Db|----------------10-10-10-10-10-10-10-10-7-10-10-10-------7-7-7-7-7-7-7-7-|
Ab|---------------------------------------------------------5-5-5-5-5-5-5-5-|
Db|-------------------------------------------------------------------------|
  
  (guitar 2)
eb|-------------------------------------------------------------------------|
Bb|-------------------------------------------------------------------------|
Gb|-------------------------------------------------------------------------|
Db|---------------------------------------------------------7-7-7-7-7-7-7-7-|
Ab|---------------------------------------------------------5-5-5-5-5-5-5-5-|
Db|-------------------------------------------------------------------------|
 
eb|-----------------------------------------------------------------------|
Bb|-----------------------------------------------------------------------|
Gb|-----------------------------------------------------------------------|
Db|-7-7-7-7-7-7-7-7-7-7-7-7-7-7-7-7-7-7-7-7-7-----------------------------|
Ab|-5-5-5-5-5-5-5-5-5-5-5-5-5-5-5-5-5-5-5-5-5-----------------------------|
Db|-----------------------------------------------------------------------|


   CHORUS 
  (guitar 1)
eb|-----------------------------------------------------------------------|
Bb|----------------------------------------------------------------10-----|
Gb|-10-10-10-9-9-9---------------------------7-7-7-10-9---------10--------|
Db|----------------10-10-10-10-10-7-10-10-10------------10-7-10-----------|
Ab|-----------------------------------------------------------------------|
Db|-----------------------------------------------------------------------|

eb|-----------------------------------------------------------------------|
Bb|-----------------------------------------------------------------------|
Gb|-10-10-10-9-9-9---------------------------7-7-7------------------------|
Db|----------------10-10-10-10-10-7-10-10-10------------------------------|
Ab|-----------------------------------------------------------------------|
Db|-----------------------------------------------------------------------|
    
  (guitar 2)
eb|-----------------------------------------------------------------------|
Bb|-----------------------------------------------------------------------|
Gb|-----------------------------------------------------------------------|
Db|-8-8-----------3-3-3-----------0----3---- 5---------------0-0----------|
Ab|-8-8-----------3-3-3-----------0----3---- 5---------------0-0----------|
Db|-8-8-----------3-3-3-----------0----3---- 5---------------0-0----------|


   VERSE 
  (guitar 1)
eb|-----------------------------------------------------------------------|
Bb|-----------------------------------------------------------------------|
Gb|-------7-----5-----7-----5-7-----------7-----5------7-----9-9----------|
Db|-----------------------------------------------------------------------|x4
Ab|-----------------------------------------------------------------------|
Db|-0-0-0---0-0---0-0---0-0--------0-0-0----0-0----0-0---0-0--------------|

  (guitar 2)
eb|-----------------------------------------------------------------------|
Bb|-----------------------------------------------------------------------|
Gb|-----------------------------------------------------------------------|
Db|-0-0-12-------------------------0-0-12---------------------------------|
Ab|-0-0-12-------------------------0-0-12---------------------------------|
Db|-0-0-12-------------------------0-0-12---------------------------------|

eb------------------------------------------------------------------------|
Bb|-----------------------------------------------------------------------|
Gb|-----------------------------------------------------------------------|
Db|-0-0-12-0-0-10------------------0-0-12-0-0-10-0-0-12-0-0-12-14-14------|
Ab|-0-0-12-0-0-10------------------0-0-12-0-0-10-0-0-12-0-0-12-14-14------|
Db|-0-0-12-0-0-10------------------0-0-12-0-0-10-0-0-12-0-0-12-14-14------|

eb|-----------------------------------------------------------------------|
Bb|-----------------------------------------------------------------------|
Gb|-----------------------------------------------------------------------|
Db|-3-3-5-0-3-5-0-5-7-0-5-7-10-7-8-7--3-3-5-0-3-5-0-5-7-0-5-7-10-7-8-7----|x2
Ab|-----------------------------------------------------------------------|
Db|-----------------------------------------------------------------------|

  (chorus)

  (verse)

  (chorus)
   

   BREAK - i am not 100% sure on the break but it sounds fine to me
eb|-----------------------------------------------------------------------|
Bb|-----------------------------------------------------------------------|
Gb|-----------------------------------------------------------------------|
Db|-0-12-0-12-0-12-0-12-0-0-0-0-0-12-0-12-0-12-0-12-0-0-0-0---------------|x2
Ab|-0-12-0-12-0-12-0-12-0-0-0-0-0-12-0-12-0-12-0-12-0-0-0-0---------------|
Db|-0-12-0-12-0-12-0-12-0-0-0-0-0-12-0-12-0-12-0-12-0-0-0-0---------------|



eb|-----------------------------------------------------------------------|
Bb|-----------------------------------------------------------------------|
Gb|-----------------------------------------------------------------------|
Db|-0000-0-0-0-0-0000-0-0-0-0-0000-0-0-0-0-0000-0-0-0-0-------------------|x2
Ab|-0000-0-0-0-0-0000-0-0-0-0-0000-0-0-0-0-0000-0-0-0-0-------------------|
Db|-0000-0-0-0-0-0000-0-0-0-0-0000-0-0-0-0-0000-0-0-0-0-------------------|

  (chorus x2)


eb|-----------------------------------------------------------------------|
Bb|-----------------10-----------------10-----------------10--------------|
Gb|-10-9---------10----10-9---------10----10-9---------10-----------------|
Db|------10-7-10------------10-7-10------------10-7-10--------------------|x4
Ab|-----------------------------------------------------------------------|
Db|-----------------------------------------------------------------------|

| /  slide up
| \  slide down
| h  hammer-on
| p  pull-off
| ~  vibrato
| +  harmonic
| x  Mute note
=============================================================================
         
Suggest correction
Give kudos to tab author, rate the tab!
1 2 3 4 5
comments
print report bad tab
guest
You may want to rate the tab now too:
select rating
Wanna post a correction for this tab? Suggest correction