Oops, an error
Loading. Please wait.

Constant Illuminations Bass Tab

version 1
version 1

Whole song

Interactive

957 views 1 this week
no commentswrite comment
1 2 3 4 5
please rate
add to favorites
launch autoscroll
font size
0
reset
guitar tuner
Autoscroll
slow
fast
+/-
esc
set tempo
stop
Help us to improve Ultimate-Guitar.com Take our survey!
×
Author
Funeral For A Friend
Constant Illuminations
Drop D flat

The into is very fast paced, it's hard to pick up the rhythm, so listen very carefully to it.


Intro/Verse
F#|------------------------------------------------------------------|
C#|------------------------------------------------------------------|
G#|------3---3-0-----3---3-5--------3---3-0-----3---3-5--------------|
C#|--0-0---0-----0-0---0-----0~-0-0---0-----0-0---0-----3-5-3-0------| X6


Chorus
F#|-------------------------------------------------------------------------|
C#|-------------------------------------------------------------------------|
G#|-------------------------------------------------------------------------|
C#|-0000000000000003-3333333333333338-8888888888888885-5555555555555558/----|

F#|----------------------------------------------------------------------------|
C#|----------------------------------------------------------------------------|
G#|-------------------------------------------------------------3--3-5---------|
C#|-0000000000000003-3333333333333338-8888888888888885-55555555--0-----3-5-3-0-|


Verse
F#|------------------------------------------------------------------|
C#|------------------------------------------------------------------|
G#|------3---3-0-----3---3-5--------3---3-0-----3---3-5--------------|
C#|--0-0---0-----0-0---0-----0~-0-0---0-----0-0---0-----3-5-3-0------| X4


Chorus
F#|-------------------------------------------------------------------------|
C#|-------------------------------------------------------------------------|
G#|-------------------------------------------------------------------------|
C#|-0000000000000003-3333333333333338-8888888888888885-5555555555555558/----| X2


Bridge
F#|----------------------------------|
C#|----------------------------------|
G#|------3-5-3-0-----3-5-3-0---------|
C#|--3-5---------3-5---------3-5-6-5-| X7

F#|----------------------------------|
C#|----------------------------------|
G#|------3-5-3-0-----3-5-3-0---------|
C#|--3-5---------3-5---------3-5-6-8/|    (<<< Don't miss out the 8 that replaces the 5 there <<<)


Chorus
F#|-------------------------------------------------------------------------|
C#|-------------------------------------------------------------------------|
G#|-------------------------------------------------------------------------|
C#|-0000000000000003-3333333333333338-8888888888888885-5555555555555558/----| X2

Outro
F#|-----------|
C#|-----------|
G#|-----------|
C#|-0~------8/| X4

F#|------------------|
C#|------------------|
G#|------------------|
C#|-0000000000000008/| X2

F#|------------------------------------|
C#|------------------------------------|
G#|------3-5-----7-5-3-5-3-------------|
C#|--0-0-----0-0-----------0-0-3-5-3-8/| X7

F#|------------------------------------|
C#|------------------------------------|
G#|------3-5-----7-5-3-5-3-------------|
C#|--0-0-----0-0-----------0-0-3-5-6/--|
Suggest correction
Give kudos to tab author, rate the tab!
1 2 3 4 5
comments
print report bad tab
guest
You may want to rate the tab now too:
select rating
Wanna post a correction for this tab? Suggest correction