Oops, an error
Loading. Please wait.

Damage Inc Tab

version 1
version 1

Whole song

Interactive

1,392 views 1 this week
3 commentsread comments
1 2 3 4 5
worth learning
x 4
add to favorites
launch autoscroll
font size
0
reset
how to read this tab
guitar tuner
Autoscroll
slow
fast
+/-
esc
set tempo
stop
Help us to improve Ultimate-Guitar.com Take our survey!
×
Contributor
Difficulty
Tuning
METSOAD 2,689
intermediate
E A D G B E
I have dilberatly posted the Metallica intro because FFAF's is not right, also after a 
there should be a ringing E5 Chord in there.

Intro
|--5------3------|----------------|----------------|----------------|
|----------------|--3------5------|--7------7------|--8------3------|
|--2------4------|--4------6------|--7------4------|--5------7-p-0--|
|----------------|----------------|----------------|----------------|
|----------------|----------------|----------------|----------------|
|----------------|----------------|----------------|----------------|
 volume swells, with heavy echo

|--5------3------|----------------|-------------|----------------|
|----------------|--3------5-p-3--|--7p5p3--7---|--8p7h8p7-3p0---|
|--2------4------|--4------6-p-2--|--7------4---|--5-------7p0---|
|----------------|----------------|-------------|----------------|
|----------------|----------------|-------------|----------------|
|----------------|----------------|-------------|----------------|
    Play E Chord here
|--5------3------|----------------|-----------|--------------|
|----------------|--3------5-p-3--|--7p3—7p3--|--8p5h7p4--3--|
|--2------4------|--4------6-p-2--|--7----4---|--5p2h4p2--7--|
|----------------|----------------|-----------|--------------|
|----------------|----------------|-----------|--------------|
|----------------|----------------|-----------|--------------|

Hard intro
||------------|--------------------|------------|--------------------|
||------------|--------------------|------------|--------------------|
||------------|--------------------|------------|--------------------|
||--2----2----|--2----2---3--3--3--|--2----2----|--2----2---3--3--3--|
||--2----2----|--2----2---3--3--3--|--2----2----|--2----2---3--3--3--|
||--0----0----|--0----0---1--1--1--|--0----0----|--0----0---1--1--1--|

|--------------|------------------|--------------|--------------||
|--------------|------------------|--------------|--------------||
|--------------|------------------|--------------|--------------||
|--2--2--2--2--|--2--2--2--3-3-3--|--2--2--2--2--|--2--2--2--2--||
|--2--2--2--2--|--2--2--2--3-3-3--|--2--2--2--2--|--2--2--2--2--||
|--0--0--0--0--|--0--0--0--1-1-1--|--0--0--0--0--|--0--0--0--0--||

Riff 1
Rhy Fig 1
||-------------------------------------------------|------------------------|
||-------------------------------------------------|------------------------|
||-------------------------------------------------|------------------------|
||-------------------------------------------------|-----7/8-----7/8-----7/-|
||-------------------------------------------------|-----7/8-----7/8-----7/-|
||-0--0--0--0--0--0--0--0--0--0--0--0--0--0--0--0--|--5-------X-------X-----|
   PM............................................|

||-------------------------------------------------|------------------------|
||*------------------------------------------------|------------------------|
||-------------------------------------------------|------------------------|
||--/8---------------------------------------------|-----7/8-----7/8-----7/-|
||*-/8---------------------------------------------|-----7/8-----7/8-----7/-|
||-------0--0--0--0--0--0--0--0--0--0--0--0--0--0--|--5-------X-------X-----|
         PM......................................|

|------------------------------------------------|------------------------|
|------------------------------------------------|------------------------|
|------------------------------------------------|------------------------|
|-/8---------------------------------------------|-----7/8-----7/8-----7/-|
|-/8---------------------------------------------|-----7/8-----7/8-----7/-|
|------0--0--0--0--0--0--0--0--0--0--0--0--0--0--|--5-------X-------X-----|
       PM......................................|
                                                  ________________________
                                                 |1.
|------------------------------------------------|--------------------------|
|------------------------------------------------|--------------------------|
|------------------------------------------------|--------------------------|
|-/8---------------------------------------------|-----54-----54-----5------|
|-/8---------------------------------------------|-----54-----54-----5------|
|------2--2--2--2--2--2--2--2--2--2--2--2--2--2--|--3-------X-------X-------|
       PM......................................|
_________________________________________________________________________
                                                                           |
|------------------------------------------------|----------------------------|
|------------------------------------------------|------------------------*---|
|------------------------------------------------|----------------------------|
|-4---------------------------------------------|-----7/8-----7/8-----7/------|
|-4---------------------------------------------|-----7/8-----7/8-----7/-*----|
|------0--0--0--0--0--0--0--0--0--0--0--0--0--0--|--5-------X-------X---------|
       PM......................................|
 ________________________
|2.
|------------------------|------------|--------------|
|------------------------|------------|--------------|
|------------------------|--4---------|--------------|
|-----54-----54-----5--|--4----5----|--7----5--------|
|-----54-----54-----5--|--2----5----|--7----5--------|
|--3-------X-------X-----|-------3----|--5----3------|

|--------------------------------------------------|-------------|
|--------------------------------------------------|-------------|
|--------------------------------------------------|-------------|
|--------------------------------------------------|--4----------|
|--4--4--4--4--4--4--4--4--4--4--4--4--4--4--4--4--|--4----------|
|--2--2--2--2--2--2--2--2--2--2--2--2--2--2--2--2--|--2----------|
GRRRRRRRRRRRRRRRRRRRRRRRRRRRRRRRRRRRRRRRRRRRRRRRRRRRRR

||---------------------------|-----------------------------|
||*--------------------------|-----------------------------|
||---------------------------|-----------------------------|
||---------------------------|-----------------------------|
||*-85----------------------|--85--------------------------|
||--63--0-0-0--0--0--0-0-0--|--63--0-0-0--0--0--0-0-0------|
         PM................|         . . . . . . . . . .

|---------------------------|----------------------------||-------------|
|---------------------------|---------------------------*||-------------|
|---------------------------|----------------------------||-------------|
|---------------------------|----------------------------||-------------|
|--85----------------------|--85----------------------*||----8----------|
|--63--0-0-0--0--0--0-0-0--|--63--1-1-1--0--0--0-0-0---||----6----------|

Intresting little bit played somewhere in the verse
|-----------------------------------------|
|-----------------------------------------|
|-----------------------------------------|
|-----------------------------------------|
|-----------------------------------------|
|-10-10-10-10-10-10-10-10-6-6-6-6-6-6-6-6-|

Chorus
|----------|------------|-------------------------------------------------|
|----------|------------|-------------------------------------------------|
|4---------|------------|------------------------------------------------0|
|4----5----|--7----5----|0-4--4--4--4--4--4--4--4--4--4--4--4--4--4--4--40|
|2----5----|--7----5----|0-4--4--4--4--4--4--4--4--4--4--4--4--4--4--4--4-|
|-----3----|--5----3----|--2--2--2--2--2--2--2--2--2--2--2--2--2--2--2--2-|
                          PM............................................|

|----------|------------|-------------------------------------------------|
|----------|------------|-------------------------------------------------|
|4---------|------------|------------------------------------------------0|
|4----5----|--7----5----|0-4--4--4--4--4--4--4--4--4--4--4--4--4--4--4--40|
|2----5----|--7----5----|0-4--4--4--4--4--4--4--4--4--4--4--4--4--4--4--4-|
|-----3----|--5----3----|--2--2--2--2--2--2--2--2--2--2--2--2--2--2--2--2-|

 After Chorus 1 st time
||------------|-------------------|--------------|--------------||
||------------|-------------------|--------------|--------------||
||------------|-------------------|--------------|--------------||
||--2----2----|--2----2--3--3--3--|--2--2--2--2--|--2--2--2--2--||
||--2----2----|--2----2--3--3--3--|--2--2--2--2--|--2--2--2--2--||
||--0----0----|--0----0--1--1--1--|--0--0--0--0--|--0--0--0--0--||

2nd Time
||-------------------------------------------------|
||-------------------------------------------------|
||-------------------------------------------------|
||-4--4--4--4--4--4--4--4--4--4--4--4--4--4--4--4--|
||-4--4--4--4--4--4--4--4--4--4--4--4--4--4--4--4--|
||-2--2--2--2--2--2--2--2--2--2--2--2--2--2--2--2--|

Riff
||------------------------------|---------------------------|
||*-----------------------------|--------------------------*|
||------------------------------|---------------------------|
||------------------------------|---------------------------|
||*-------7-7------8------5-----|--7-7-----8-----7-7-----8-*|
||--0--0-------0------0------0--|-------0-----0-------0--6--|

 4th ending
||------------------------|
||------------------------|
||------------------------|
||----------------------4-|
||-7-7-----3------5-----2-|
||-----0------0------0----|

                                    Ending 1-3
||------------------------------|---------------------------|
||*-----------------------------|--------------------------*|
||------------------------------|---------------------------|
||------------------------------|---------------------------|
||*-------7-7------8------5-----|--7-7-----8-----7-7-----8-*|
||--0--0-------0------0------0--|-------0-----0-------0--6--|
    pm--       -      -      -

Last ending
||------------------------|
||------------------------|
||------------------------|
||----------------------4-|
||-7-7-----3------5-----2-|
||-----0------0------0----|

Solo: I don't now this but there are 3 key backing bits

1: Chugg what is below lots of times

|----------------|
|----------------|
|----------------|
|2-2-2-2-2-2-2-2-|
|2-2-2-2-2-2-2-2-|
|0-0-0-0-0-0-0-0-|

2: Chugg what is below lots

|------------|
|------------|
|------------|
|5-5-5-5-5-5-|
|5-5-5-5-5-5-|
|3-3-3-3-3-3-|

3: The riff just after the hard intro 3 times followed by the chorus riff then:
|------------|------------|------------------------------------------|
|------------|------------|------------------------------------------|
|--4---------|------------|------------------------------------------|
|--4----5----|--7----5----|------------------------------------------|
|--2----5----|--7----5----|--4----4--4----4--4----5---5---5----5--5--|
|-------3----|--5----3----|--2----2--2----2--2----3---3---3----3--3--|
                                 PM...........|      PM............|

|-----------------------------------------|
|-----------------------------------------|
|-----------------------------------------|
|-----------------------------------------|
|--7----7--7----7--7---8----8--8----8--8--|
|--5----5--5----5--5---6----6--6----6--6--|

Pre chorus 2 again,
Verse
Chorus
Ending
|------------|-----------------|-----------------|
|------------|-----------------|-----------------|
|------------|-----------------|-----------------|
|------------|-----------------|-----------------|
|--2----2----|--2----2--3-3-3--|--3--------------|
|--0----0----|--0----0--1-1-1--|--1--------------|
comments
print report bad tab
3 comments total.
0 reply
dannyloughran 706 wrote on July 28 2006, 10:56 pm

Isnt this meant to be Funeral for a Friends version of the song?
You dont just not tab a part because its incorrect to Metallica's version. Besides, this whole tab looks pretty much like Metallicas version. Sorry dude :)

0 reply
CemtaryDrive10 351 wrote on August 20 2006, 11:37 pm

yeah, if your tabbing FFAF's version, do it how they play it, not Metallica. Cover songs arn't always a copy of a song, infact they shouldn't be. They're supposed to be an Artist's take on that song. And well, tabbing out Metallica for a FFAF Metallica cover just doesn't cut it.

0 reply
Smackenbob 40 wrote on December 9 2009, 10:18 pm

im sorry, but this isn't the guitar part. the intro is NOT GUITAR.

I want to post or [tab]
guest
You may want to rate the tab now too:
select rating
Please do not post tabs as comments. Select "correction" instead!