Oops, an error
Loading. Please wait.

Diary Bass Tab

version 1
version 1

Whole song

Interactive

564 views 1 this week
no commentswrite comment
1 2 3 4 5
please rate
add to favorites
launch autoscroll
font size
0
reset
guitar tuner
Autoscroll
slow
fast
+/-
esc
set tempo
stop
Help us to improve Ultimate-Guitar.com Take our survey!
×
Author
dvanwyk 5,825
-------------------------------------------------------------------------------
		         The Diary - Funeral for A Friend
-------------------------------------------------------------------------------

 Tabbed By :dvanwyk
 e-mail:dustinavnwyk@yahoo.com 

 Tuning:Drop D Flat (Db Ab Db Gb)

Gb|---------------------------------------------------------------------|
Db|---------------------------------------------------------------------|
Ab|3-3-33-3-33-3h5-------------------3-3-33-3-33-3/5--------------------|
Db|-----------------2-2-22-2-22-2h4------------------2-2-22-2-22-2/4----|
  Verse x4
Gb|----------------------------------------|
Db|----------------------------------------|
Ab|3-3-3-3-3-3-3h5-------------------------|
Db|-----------------2-2-2-2-2-2-2/4--------|
 
  Pre-Chorus
Gb|-------------|--------------------------|
Db|-------------|--------------------------|
Ab|5~-----------|3333333333333333----------|
Db|-------------|--------------------------|

  Chorus x2
Gb|----------------------------------------------------------------|
Db|-------------------------3/55-----------------------------------|
Ab|77-33-55------77-33-55-5--------77-33-55------3333333333333333--|
Db|---------55------------------------------55---------------------|

  Verse x4
Gb|----------------------------------------|
Db|----------------------------------------|
Ab|3-3-3-3-3-3-3h5-------------------------|
Db|-----------------2-2-2-2-2-2-2/4--------|
 
  Pre-Chorus
Gb|-------------|--------------|
Db|-------------|--------------|
Ab|5~-----------|3~------------|
Db|-------------|--------------|

Gb|-------------|--------------------------|
Db|-------------|--------------------------|
Ab|5~-----------|3333333333333333----------|
Db|-------------|--------------------------|

  Chorus x2
Gb|----------------------------------------------------------------|
Db|-------------------------3/55-----------------------------------|
Ab|77-33-55------77-33-55-5--------77-33-55------3333333333333333--|
Db|---------55------------------------------55---------------------|

   Post-Chorus
Gb|--------------------|
Db|--------------------|
Ab|555555555555--------|
Db|--------------------|

  Bridge
Gb|---------------------------------------------------------------|
Db|---------------------------------------------------------------|
Ab|7-7-77--3-3-33--5-5-55-5-5-55---7-7-77--3-3-33--5-5-55---------|
Db|-------------------------------------------------------0-0-00--|

Gb|---------------------------------------------------------------------------|
Db|---------------------------------------------------------------------------|
Ab|77777777-33333333-5555555555555555---77777777-33333333-555555555-----------|
Db|-----------------------------------------------------------------00000000--|
 
  Pause

 Chorus x1 (2.43)
Gb|----------------------------------------------------------------|
Db|-------------------------3/55-----------------------------------|
Ab|77-33-55------77-33-55-5--------77-33-55------3333333333333333--|
Db|---------55------------------------------55---------------------|

   Post-Chorus
Gb|--------------------|
Db|--------------------|
Ab|555555555555--------|
Db|--------------------|
 
  Outro x3
Gb|------------------------------------|
Db|-------------------------3/55-------|
Ab|77-33-55------77-33-55-5------------|
Db|---------55-------------------------|

Gb|------------------------------------------------|
Db|------------------------------------------------|
Ab|77-33-55------3333333333333333-5555555555555555-|
Db|---------55-------------------------------------|

   End Off
Gb|-----------|
Db|-----------|
Ab|7~---------|
Db|-----------|
Suggest correction
What's this?
You can suggest a correction to this tab. Community and Mods will review your correction and vote to approve or reject it.
comments
We did not receive enough feedback on this tab! Please rate:
print report bad tab
1 2 3 4 5
guest
You may want to rate the tab now too:
select rating
Please do not post tabs as comments. Select "correction" instead!