Oops, an error
Loading. Please wait.

Front Row Seats To The End Of The Worlds Tab

1,110 views 1 this week
1 commentread comment
1 2 3 4 5
excellent!
x 1
add to favorites
launch autoscroll
font size
0
reset
how to read this tab
guitar tuner
Tab Pro tools
  • play this tab
  • loop segment
  • change instrument
  • show fretboard
  • metronome
Autoscroll
slow
fast
+/-
esc
set tempo
stop
Contributor
Difficulty
Tuning
intermediate
C# G# C# F# A# D#
Funeral For a Friend
Front Row Seats To The End Of The World
Welcome Home Armageddon 2011

C#G#C#F#A#D#

Intro - Clean
|-7-|
|-0-|
|-4-|
|-5-|
|-5-|
|---|

Then 
Lead
|-----------|
|-----------|
|-7----6----|
|--x16--x16-|
|-5----4----| x2
|-----------|

Rhythm
|-------------|
|-------------|
|-7-----6-----|
|-5-----5-----|
|-5-x16-4-x16-| x2
|-5-----5-----|

Verse
Lead
|-----------------------------|----|--------------------------7--7-|
|-----------------------------|----|--------------------------6--6-|
|-3-------------3-3-3-4-4-4-5-|----|-3------------------------7--7-|
|-3p0-3h4-0-0-0-1-1-1-2-2-2-3-|----|-3p0-3h4-0-0--4p3-0-3p0-0------|
|-1p0-3h4-0-0-0-1-1-1-2-2-2-3-|-x3-|-1p0-3h4-0-0--4p3-0-3p0-0------| x2
|-----3h4-0-0-0-1-1-1-2-2-2-3-|----|-----3h4-0-0--4p3-0-3p0-0------|

Rhythm
|-----------------------------|----|-------------------------------|
|-----------------------------|----|-------------------------------|
|-3---------------------------|----|-3------------------------4--4-|
|-3p0-3h4-0-0-0-1-1-1-2-2-2-3-|----|-3p0-3h4-0-0--4p3-0-3p0-0-3--3-|
|-1p0-3h4-0-0-0-1-1-1-2-2-2-3-|-x3-|-1p0-3h4-0-0--4p3-0-3p0-0-2--2-| x2
|-----3h4-0-0-0-1-1-1-2-2-2-3-|----|-----3h4-0-0--4p3-0-3p0-0------|

Chorus
Lead
|-----------------------------------------------------|
|----------7--------8----7----10----8----7------------|
|-7---7-x4-7-x4-6---7-x4-7-x4-7--x8-7-x4-7-x4-7---6---|
|--x8-5----5-----x8-5----5----7-----7----7-----x9--x7-|
|-5-------------4-----------------------------5---4---|
|-----------------------------------------------------|

Rhythm
|-----------------------------|
|-----------------------------|
|-------------------7----6----|
|-5-----7-----9-----7-x8-4----|
|-5-x16-7-x16-9-x16-5----4-x8-|
|-5-----7-----9----------4----|

Pre Verse
Lead
|-7---7----------------------------7--7-|
|-6---6----------------------------6--6-|
|-7---7---3------------------------7--7-|
|---------3p0-3h4-0-0--4p3-0-3p0-0------|
|---------1p0-3h4-0-0--4p3-0-3p0-0------| 
|-------------3h4-0-0--4p3-0-3p0-0------|

Rhythm
|---------------------------------------|
|---------------------------------------|
|---------3------------------------4--4-|
|---------3p0-3h4-0-0--4p3-0-3p0-0-3--3-|
|---------1p0-3h4-0-0--4p3-0-3p0-0-2--2-| 
|-------------3h4-0-0--4p3-0-3p0-0------|

Repeat Verse Once
Repeat Chorus
Breakdown
Lead
|-7---7-|
|-6---6-|
|-7---7-|
|-------|
|-------| x2
|-------|

Rhythm
|------------------------------|
|------------------------------|
|------------------------------|
|-6-5--5-4--4-3----0------0----|
|-6-5--5-4--4-3--0-0--0-0-0--0-| x4
|-6-5--5-4--4-3--0-0--0-0-0--0-|

Then
Lead
|------------------------------|------------------7------7----|
|------------------------------|------------------6------6----|
|------------------------------|------------------7------7----|
|-6-5--5-4--4-3----0------0----|-6-5--5-4--4-3----------------|
|-6-5--5-4--4-3--0-0--0-0-0--0-|-6-5--5-4--4-3--0----0-0----0-| x2
|-6-5--5-4--4-3--0-0--0-0-0--0-|-6-5--5-4--4-3--0----0-0----0-|

Rhythm
|------------------------------|
|------------------------------|
|------------------------------|
|-6-5--5-4--4-3----0------0----|
|-6-5--5-4--4-3--0-0--0-0-0--0-| x4
|-6-5--5-4--4-3--0-0--0-0-0--0-|

Then
Lead
|------------------------------|------------------7------7----|
|------------------------------|------------------6------6----|
|-8-7--7-6--6-5----------------|-8-7--7-6--6-5----7------7----|
|------------------0------0----|------------------------------|
|-6-5--5-4--4-3--0-0--0-0-0--0-|-6-5--5-4--4-3--0----0-0----0-| x2
|----------------0-0--0-0-0--0-|----------------0----0-0----0-|

Rhythm
|------------------------------|
|------------------------------|
|------------------------------|
|-6-5--5-4--4-3----0------0----|
|-6-5--5-4--4-3--0-0--0-0-0--0-| x4
|-6-5--5-4--4-3--0-0--0-0-0--0-|

Repeat Chorus
Outro
Lead
|------------------------------|------------------7------7----|
|------------------------------|------------------6------6----|
|------------------------------|------------------7------7----|
|-6-5--5-4--4-3----0------0----|-6-5--5-4--4-3----------------|
|-6-5--5-4--4-3--0-0--0-0-0--0-|-6-5--5-4--4-3--0----0-0----0-| 
|-6-5--5-4--4-3--0-0--0-0-0--0-|-6-5--5-4--4-3--0----0-0----0-|

Rhythm
|------------------------------|
|------------------------------|
|------------------------------|
|-6-5--5-4--4-3----0------0----|
|-6-5--5-4--4-3--0-0--0-0-0--0-| x2
|-6-5--5-4--4-3--0-0--0-0-0--0-|
comments
We did not receive enough feedback on this tab! Please rate:
print report bad tab
1 2 3 4 5
1 comment total.
0 reply
CrashAshes43 wrote on July 30 2012, 12:16 pm

Personally, the chorus lead to me sounds/feels better as
|-5-------------------------------------------5-------|
|-----7----8----5---8----7----10----8----7--------5---|
|-7---7-x4-7-x4-6---6-x4-6-x4-7--x8-7-x4-7-x4-7---6---|
|--x8------------x8-----------7-----7----7-----x9--x7-|
|-5---5----5----4---4----4----9-----9----9----5---4---|
|-----------------------------------------------------|

Otherwise, perfect tab man.

I want to post or [tab]
guest
You may want to rate the tab now too:
select rating
Please do not post tabs as comments. Select "correction" instead!