Oops, an error
Loading. Please wait.

History Bass Tab

version 1
version 1

Whole song

Interactive

1,274 views 1 this week
3 commentsread comments
1 2 3 4 5
please rate
add to favorites
launch autoscroll
font size
0
reset
guitar tuner
Autoscroll
slow
fast
+/-
esc
set tempo
stop
Help us to improve Ultimate-Guitar.com Take our survey!
×
ARTIST: FUNERAL FOR A FRIEND
ALBUM: HOURS
SONG: HISTORY
INSTRUMENT: BASS GUITAR
TUNING: STANDARD
TABBER: STACEY HUTCHEON

I know FFAF normally use Drop Db tuning - but I hate retuning
my guitar so I tabbed out one of their best songs in Standard
for you all

NB - I don't think there is a bass part in History (if there is
     it is really quiet) - but this is what my band's bassist
     plays and it sounds great! enjoy everyone :)

Guitar 1: Bass Guitar (G-1)

==[INTRO]=======================

 |(G-1)          |
e|---------------|
B|---------------|
G|---------------|
D|---------------|
A|--8--4-----6~--|
E|--------4------|

==[VERSE PT.1]==================

 |(G-1)                 |
e|----|-----|-----|-----|
B|----|-----|-----|-----|
G|----|-----|-----|-----|
D|----|-----|-----|-----| X2
A|--8-|--4--|-----|--6--|
E|----|-----|--4--|-----|

==[VERSE PT.2]==================

 |(G-1)                 |
e|----|-----|-----|-----|
B|----|-----|-----|-----|
G|----|-----|-----|-----|
D|----|-----|-----|-----| X4
A|--8-|--4--|-----|--6--|
E|----|-----|--4--|-----|

==[CHORUS]======================

 |(G-1)                 |
e|----|-----|-----|-----|
B|----|-----|-----|-----|
G|----|-----|-----|-----|
D|----|-----|-----|-----| X2
A|--8-|--4--|-----|--6--|
E|----|-----|--4--|-----|

==[FORMAT]======================

Intro
Verse Pt. 1
Verse Pt. 2
Chorus
Verse Pt. 2
Chorus x2
Intro x2
Chorus x2
Suggest correction
Give kudos to tab author, rate the tab!
1 2 3 4 5
comments
print report bad tab
3 comments total.
0 reply
jmalzone 10 wrote on April 15 2006, 05:57 pm

Are you seriously stating there is no bassline in Hospitality?? Are you out of your ****ing mind?! Your band must suck because the "bassline" if you call it that you have TABed is absolutely horrible. I would even stretch to say you aren't in a band.

0 reply
jmalzone 10 wrote on April 15 2006, 06:00 pm

Ooopss....meant History...to my previous insult.

0 reply
geniusguitarist 30 wrote on June 29 2007, 01:57 pm

Haha you shit on your own tree there! do make insults... its not very nice is it... and whats it gonna bring you, making fun of other peoples work!

guest
You may want to rate the tab now too:
select rating
Wanna post a correction for this tab? Suggest correction