Oops, an error
Loading. Please wait.

History Tab

version 1
version 1

Whole song

Interactive

13,784 views 39 this week
no commentswrite comment
1 2 3 4 5
please rate
add to favorites
launch autoscroll
font size
0
reset
how to read this tab
guitar tuner
Tab Pro tools
  • play this tab
  • loop segment
  • change instrument
  • show fretboard
  • metronome
×
Best way to learn
"History"
Autoscroll
slow
fast
+/-
esc
set tempo
stop
Contributor
History
Funeral For A Friend
Hours
Drop C#- C#-G#-C#-F#-A#-D#
(Drop Db- Db-Ab-Db-Gb-Bb-Eb)

-Intro-
Kris
D#|-------------------------------------------------|
A#|-------------------------------------------------|
F#|-11--11-11-11-11--11--11-11-11-11--7--7-7-7-7--7-|
C#|-0---0--0--0--0---0---0--0--0--0---0--0-0-0-0--0-|
G#|-x---x--x--x--x---x---x--x--x--x---x--x-x-x-x--x-|
C#|-9---9--9--9--9---9---9--9--9--9---5--5-5-5-5--5-|

D#|------------------------------------------------|
A#|------------------------------------------------|
F#|-7-7-7-7--9--9-9-9-9--9--9-9-9-9--9--9-9--9~~~~-|
C#|-0-0-0-0--0--0-0-0-0--0--0-0-0-0--0--0-0--0~~~~-|
G#|-x-x-x-x--x--x-x-x-x--x--x-x-x-x--x--x-x--x-----|
C#|-5-5-5-5--7--7-7-7-7--7--7-7-7-7--7--7-7--7~~~~-|


-Verse-
Kris
D#||-----------------------------------------------------------|
A#||o----------------------------------------------------------|
F#||--11--11-11-11-11--11--11-11-11-11--7--7-7-7-7--7--7-7-7-7-|
C#||--9---9--9--9--9---9---9--9--9--9---5--5-5-5-5--5--5-5-5-5-|
G#||o-9---9--9--9--9---9---9--9--9--9---5--5-5-5-5--5--5-5-5-5-|
C#||--9---9--9--9--9---9---9--9--9--9---5--5-5-5-5--5--5-5-5-5-|
Darren
D#||-----------------------------------------------------------|
A#||o----------------------------------------------------------|
F#||-------11---12---14~~~-------------11---12---14~~~---------|
C#||--12~~~-----------------------12~~~------------------------|
G#||o----------------------------------------------------------|
C#||-----------------------------------------------------------|
-"Dear friends...
-"Romeo is...

Kris
D#|-------------------------------------------------||
A#|------------------------------------------------o||
F#|-7--7-7-7-7--7--7-7-7-7--9--9-9-9-9--9--9-9-9-9--||
C#|-7--7-7-7-7--7--7-7-7-7--7--7-7-7-7--7--7-7-7-7--||
G#|-0--0-0-0-0--0--0-0-0-0--7--7-7-7-7--7--7-7-7-7-o||
C#|-0--0-0-0-0--0--0-0-0-0--7--7-7-7-7--7--7-7-7-7--||
Darren
D#|-------------------------------------------------||
A#|------------------------------------------------o||
F#|------11---12---14~~~-------------11---12---11~~~||
C#|-12~~~-----------------------12~~~---------------||
G#|------------------------------------------------o||
C#|-------------------------------------------------||
...Of this academy, Oh..."
...Bleeding to death..."


Kris
D#||-----------------------------------------------------------|
A#||o----------------------------------------------------------|
F#||--11--11-11-11-11--11--11-11-11-11--7--7-7-7-7--7--7-7-7-7-|
C#||--0---0--0--0--0---0---0--0--0--0---0--0-0-0-0--0--0-0-0-0-|
G#||o-x---x--x--x--x---x---x--x--x--x---x--x-x-x-x--x--x-x-x-x-|
C#||--9---9--9--9--9---9---9--9--9--9---5--5-5-5-5--5--5-5-5-5-|
Darren
D#||-----------------------------------------------------------|
A#||o----------------------------------------------------------|
F#||--------------7-----------------------7--------------------|
C#||----------7-------7---------------7-------7----------------|
G#||o-----9---------------9-------9---------------9------------|
C#||--9-----------------------9--------------------------------|
-"To see a friend bleed to death...
-"I can't see, so I'll drink...
-"This sky will make me sick, so I'll give up

Kris
D#|-------------------------------------------------||
A#|------------------------------------------------o||
F#|-9--9-9-9-9--9--9-9-9-9--9--9-9-9-9--9--9-9-9-9--||
C#|-0--0-0-0-0--0--0-0-0-0--0--0-0-0-0--0--0-0-0-0--||
G#|-x--x-x-x-x--x--x-x-x-x--x--x-x-x-x--x--x-x-x-x-o||
C#|-7--7-7-7-7--7--7-7-7-7--7--7-7-7-7--7--7-7-7-7--|\
Darren                                                x3
D#|-------------------------------------------------|/
A#|------------------------------------------------o||
F#|-------------6-----------------------6-----------||
C#|---------7-------7---------------7-------7-------||
G#|-----9---------------9-------9---------------9--o||
C#|-9-----------------------9-----------------------||
...And what for? some kind of metaphor that"
...Until I see it"
...On you, I'll give up on this"

Kris
D#|-------------------------------------------------|
A#|-------------------------------------------------|
F#|-11--11-11-11-11--11--11-11-11-11--7--7-7-7-7--7-|
C#|-0---0--0--0--0---0---0--0--0--0---0--0-0-0-0--0-|
G#|-x---x--x--x--x---x---x--x--x--x---x--x-x-x-x--x-|
C#|-9---9--9--9--9---9---9--9--9--9---5--5-5-5-5--5-|
Darren
D#|-------------------------------------------------|
A#|-------------------------------------------------|
F#|-------------7-----------------------7-----------|
C#|---------7-------7---------------7-------7-------|
G#|-----9---------------9-------9---------------9---|
C#|-9-----------------------9-----------------------|
"This sky will make me sick, so I'll give up

Kris
D#|------------------------------------------------|
A#|------------------------------------------------|
F#|-7-7-7-7--9--9-9-9-9--9--9-9-9-9--9--9-9--9~~~~-|
C#|-0-0-0-0--0--0-0-0-0--0--0-0-0-0--0--0-0--0~~~~-|
G#|-x-x-x-x--x--x-x-x-x--x--x-x-x-x--x--x-x--x-----|
C#|-5-5-5-5--7--7-7-7-7--7--7-7-7-7--7--7-7--7~~~~-|
Darren
D#|------------------------------------------------|
A#|------------------------------------------------|
F#|-------------6-----------------------6----------|
C#|---------7-------7---------------7-----7--------|
G#|-----9---------------9-------9-----------9------|
C#|-9-----------------------9----------------------|
...On this, I'll give up on you"


-Chorus-
Kris
D#||-----------------------------------------------------------|
A#||o----------------------------------------------------------|
F#||--11--11-11-11-11--11--11-11-11-11--7--7-7-7-7--7--7-7-7-7-|
C#||--9---9--9--9--9---9---9--9--9--9---5--5-5-5-5--5--5-5-5-5-|
G#||o-9---9--9--9--9---9---9--9--9--9---5--5-5-5-5--5--5-5-5-5-|
C#||--9---9--9--9--9---9---9--9--9--9---5--5-5-5-5--5--5-5-5-5-|
Darren
D#||-----------------------------------------------------------|
A#||o----------------------------------------------------------|
F#||-------11---12---14~~~-------------11---12---14~~~---------|
C#||--12~~~-----------------------12~~~------------------------|
G#||o----------------------------------------------------------|
C#||-----------------------------------------------------------|
-"Archers in your arches...
-"And I bleed this skyline dry...

Kris
D#|-------------------------------------------------||
A#|------------------------------------------------o||
F#|-7--7-7-7-7--7--7-7-7-7--9--9-9-9-9--9--9-9-9-9--||
C#|-7--7-7-7-7--7--7-7-7-7--7--7-7-7-7--7--7-7-7-7--||
G#|-0--0-0-0-0--0--0-0-0-0--7--7-7-7-7--7--7-7-7-7-o||
C#|-0--0-0-0-0--0--0-0-0-0--7--7-7-7-7--7--7-7-7-7--||
Darren
D#|-------------------------------------------------||
A#|------------------------------------------------o||
F#|------11---12---14~~~-------------11---12---11~~~||
C#|-12~~~-----------------------12~~~---------------||
G#|------------------------------------------------o||
C#|-------------------------------------------------||
...Raise your fingers for one last salute"
...Your History is mine"


-Verse-
Kris
D#||-----------------------------------------------------------|
A#||o----------------------------------------------------------|
F#||--11--11-11-11-11--11--11-11-11-11--7--7-7-7-7--7--7-7-7-7-|
C#||--0---0--0--0--0---0---0--0--0--0---0--0-0-0-0--0--0-0-0-0-|
G#||o-x---x--x--x--x---x---x--x--x--x---x--x-x-x-x--x--x-x-x-x-|
C#||--9---9--9--9--9---9---9--9--9--9---5--5-5-5-5--5--5-5-5-5-|
Darren
D#||-----------------------------------------------------------|
A#||o----------------------------------------------------------|
F#||--------------7-----------------------7--------------------|
C#||----------7-------7---------------7-------7----------------|
G#||o-----9---------------9-------9---------------9------------|
C#||--9-----------------------9--------------------------------|
-"So you want to hold me up...
-"Yes, you want to hold me up...
-"Now, I don't care for your sweet scent or...

Kris
D#|-------------------------------------------------||
A#|------------------------------------------------o||
F#|-9--9-9-9-9--9--9-9-9-9--9--9-9-9-9--9--9-9-9-9--||
C#|-0--0-0-0-0--0--0-0-0-0--0--0-0-0-0--0--0-0-0-0--||
G#|-x--x-x-x-x--x--x-x-x-x--x--x-x-x-x--x--x-x-x-x-o||
C#|-7--7-7-7-7--7--7-7-7-7--7--7-7-7-7--7--7-7-7-7--|\
Darren                                                x3
D#|-------------------------------------------------|/
A#|------------------------------------------------o||
F#|-------------6-----------------------6-----------||
C#|---------7-------7---------------7-------7-------||
G#|-----9---------------9-------9---------------9--o||
C#|-9-----------------------9-----------------------||
...And bring me down"
...And break me down"
...The way you want me more than I want you"

Kris
D#|-------------------------------------------------|
A#|-------------------------------------------------|
F#|-11--11-11-11-11--11--11-11-11-11--7--7-7-7-7--7-|
C#|-0---0--0--0--0---0---0--0--0--0---0--0-0-0-0--0-|
G#|-x---x--x--x--x---x---x--x--x--x---x--x-x-x-x--x-|
C#|-9---9--9--9--9---9---9--9--9--9---5--5-5-5-5--5-|
Darren
D#|-------------------------------------------------|
A#|-------------------------------------------------|
F#|-------------7-----------------------7-----------|
C#|---------7-------7---------------7-------7-------|
G#|-----9---------------9-------9---------------9---|
C#|-9-----------------------9-----------------------|
"I don't care for your sweet scent or...

Kris
D#|------------------------------------------------|
A#|------------------------------------------------|
F#|-7-7-7-7--9--9-9-9-9--9--9-9-9-9--9--9-9--9~~~~-|
C#|-0-0-0-0--0--0-0-0-0--0--0-0-0-0--0--0-0--0~~~~-|
G#|-x-x-x-x--x--x-x-x-x--x--x-x-x-x--x--x-x--x-----|
C#|-5-5-5-5--7--7-7-7-7--7--7-7-7-7--7--7-7--7~~~~-|
Darren
D#|------------------------------------------------|
A#|------------------------------------------------|
F#|-------------6-----------------------6----------|
C#|---------7-------7---------------7-----7--------|
G#|-----9---------------9-------9-----------9------|
C#|-9-----------------------9----------------------|
...The way you want me more than I want you"


-Chorus-
Kris
D#||-----------------------------------------------------------|
A#||o----------------------------------------------------------|
F#||--11--11-11-11-11--11--11-11-11-11--7--7-7-7-7--7--7-7-7-7-|
C#||--9---9--9--9--9---9---9--9--9--9---5--5-5-5-5--5--5-5-5-5-|
G#||o-9---9--9--9--9---9---9--9--9--9---5--5-5-5-5--5--5-5-5-5-|
C#||--9---9--9--9--9---9---9--9--9--9---5--5-5-5-5--5--5-5-5-5-|
Darren
D#||-----------------------------------------------------------|
A#||o----------------------------------------------------------|
F#||-------11---12---14~~~-------------11---12---14~~~---------|
C#||--12~~~-----------------------12~~~------------------------|
G#||o----------------------------------------------------------|
C#||-----------------------------------------------------------|
-"Archers in your arches...
-"And I bleed this skyline dry...

Kris
D#|-------------------------------------------------||
A#|------------------------------------------------o||
F#|-7--7-7-7-7--7--7-7-7-7--9--9-9-9-9--9--9-9-9-9--||
C#|-7--7-7-7-7--7--7-7-7-7--7--7-7-7-7--7--7-7-7-7--||
G#|-0--0-0-0-0--0--0-0-0-0--7--7-7-7-7--7--7-7-7-7-o||
C#|-0--0-0-0-0--0--0-0-0-0--7--7-7-7-7--7--7-7-7-7--|\
Darren                                                x4
D#|-------------------------------------------------|/
A#|------------------------------------------------o||
F#|------11---12---14~~~-------------11---12---11~~~||
C#|-12~~~-----------------------12~~~---------------||
G#|------------------------------------------------o||
C#|-------------------------------------------------||
...Raise your fingers for one last salute"
...Your History is mine"

-Interlude-
Kris
D#|------------------------------------------------------------|
A#|------------------------------------------------------------|
F#|-11--11-11-11--11--11-11-11--11--11--11-11-11--11--11-11-11-|
C#|-9---9--9--9---9---9--9--9---9---9---9--9--9---9---9--9--9--|
G#|-9---9--9--9---9---9--9--9---9---10--10-10-10--10--10-10-10-|
C#|-9---9--9--9---9---9--9--9---9---9---9--9--9---9---9--9--9--|
Darren
D#|------------------------------------------------------------|
A#|------------------------------------------------------------|
F#|-11~~~~~~~~----11~~~~~~~~----11--11~~~~~~~~----11~~~~~~~~~~-|
C#|-9~~~~~~~~~----9~~~~~~~~~----9---9~~~~~~~~~----9~~~~~~~~~~~-|
G#|-9~~~~~~~~~----9~~~~~~~~~----9---10~~~~~~~~----10~~~~~~~~~~-|
C#|------------------------------------------------------------|
"It's all mine..."

Kris
D#|------------------------------------------------|
A#|------------------------------------------------|
F#|-11--11-11-11--11--11-11-11--9--9-9-9--9--9-9-9-|
C#|-9---9--9--9---9---9--9--9---7--7-7-7--7--7-7-7-|
G#|-9---9--9--9---9---9--9--9---9--9-9-9--9--9-9-9-|
C#|------------------------------------------------|
Darren
D#|------------------------------------------------|
A#|------------------------------------------------|
F#|-11~~~~~~~~----11~~~~~~~~----9~~~~~----9~~~~~~~-|
C#|-9~~~~~~~~~----9~~~~~~~~~----7~~~~~----7~~~~~~~-|
G#|-9~~~~~~~~~----9~~~~~~~~~----9~~~~~----9~~~~~~~-|
C#|------------------------------------------------|
...It's all mine"

Kris
D#|------------------------------------------------------------|
A#|------------------------------------------------------------|
F#|-11--11-11-11--11--11-11-11--11--11--11-11-11--11--11-11-11-|
C#|-9---9--9--9---9---9--9--9---9---9---9--9--9---9---9--9--9--|
G#|-9---9--9--9---9---9--9--9---9---10--10-10-10--10--10-10-10-|
C#|-9---9--9--9---9---9--9--9---9---9---9--9--9---9---9--9--9--|
Darren
D#|------------------------------------------------------------|
A#|------------------------------------------------------------|
F#|-11--11-11-11--11--11-11-11--11--11~~~~~~~~----11~~~~~~~~~~-|
C#|-9---9--9--9---9---9--9--9---9---9~~~~~~~~~----9~~~~~~~~~~~-|
G#|-9---9--9--9---9---9--9--9---9---10~~~~~~~~----10~~~~~~~~~~-|
C#|-9---9--9--9---9---9--9--9---9------------------------------|
"It's all mine..."

Kris
D#|------------------------------------------------|
A#|------------------------------------------------|
F#|-11--11-11-11--11--11-11-11--9--9-9-9--9--9~~~~-|
C#|-9---9--9--9---9---9--9--9---7--7-7-7--7--7~~~~-|
G#|-9---9--9--9---9---9--9--9---9--9-9-9--9--9~~~~-|
C#|------------------------------------------------|
Darren
D#|------------------------------------------------|
A#|------------------------------------------------|
F#|-11~~~~~~~~----11~~~~~~~~----9~~~~~----9~~~~~~~-|
C#|-9~~~~~~~~~----9~~~~~~~~~----7~~~~~----7~~~~~~~-|
G#|-9~~~~~~~~~----9~~~~~~~~~----9~~~~~----9~~~~~~~-|
C#|------------------------------------------------|


-Chorus-
Kris
D#||-----------------------------------------------------------|
A#||o----------------------------------------------------------|
F#||--11--11-11-11-11--11--11-11-11-11--7--7-7-7-7--7--7-7-7-7-|
C#||--9---9--9--9--9---9---9--9--9--9---5--5-5-5-5--5--5-5-5-5-|
G#||o-9---9--9--9--9---9---9--9--9--9---5--5-5-5-5--5--5-5-5-5-|
C#||--9---9--9--9--9---9---9--9--9--9---5--5-5-5-5--5--5-5-5-5-|
Darren
D#||-----------------------------------------------------------|
A#||o----------------------------------------------------------|
F#||-------11---12---14~~~-------------11---12---14~~~---------|
C#||--12~~~-----------------------12~~~------------------------|
G#||o----------------------------------------------------------|
C#||-----------------------------------------------------------|
-"Archers in your arches...
-"And I bleed this skyline dry...

Kris
D#|-------------------------------------------------||
A#|------------------------------------------------o||
F#|-7--7-7-7-7--7--7-7-7-7--9--9-9-9-9--9--9-9-9-9--||
C#|-7--7-7-7-7--7--7-7-7-7--7--7-7-7-7--7--7-7-7-7--||
G#|-0--0-0-0-0--0--0-0-0-0--7--7-7-7-7--7--7-7-7-7-o||
C#|-0--0-0-0-0--0--0-0-0-0--7--7-7-7-7--7--7-7-7-7--|\
Darren                                                x4
D#|-------------------------------------------------|/
A#|------------------------------------------------o||
F#|------11---12---14~~~-------------11---12---11~~~||
C#|-12~~~-----------------------12~~~---------------||
G#|------------------------------------------------o||
C#|-------------------------------------------------||
...Raise your fingers for one last salute"
...Your History is mine"

-Outro-
Kris
D#|----------------------------------------------------------|
A#|----------------------------------------------------------|
F#|-11--11-11-11-11--11--11-11-11-11--7--7-7-7-7--7--7-7-7-7-|
C#|-0---0--0--0--0---0---0--0--0--0---0--0-0-0-0--0--0-0-0-0-|
G#|-x---x--x--x--x---x---x--x--x--x---x--x-x-x-x--x--x-x-x-x-|
C#|-9---9--9--9--9---9---9--9--9--9---5--5-5-5-5--5--5-5-5-5-|

D#|------------------------------------------------|
A#|------------------------------------------------|
F#|-9--9-9-9-9--9--9-9-9-9--9--9-9-9-9--9--9-9-9-9-|
C#|-0--0-0-0-0--0--0-0-0-0--0--0-0-0-0--0--0-0-0-0-|
G#|-x--x-x-x-x--x--x-x-x-x--x--x-x-x-x--x--x-x-x-x-|
C#|-7--7-7-7-7--7--7-7-7-7--7--7-7-7-7--7--7-7-7-7-|

D#|-------------------------------------------------|
A#|-------------------------------------------------|
F#|-11--11-11-11-11--11--11-11-11-11--7--7-7-7-7--7-|
C#|-0---0--0--0--0---0---0--0--0--0---0--0-0-0-0--0-|
G#|-x---x--x--x--x---x---x--x--x--x---x--x-x-x-x--x-|
C#|-9---9--9--9--9---9---9--9--9--9---5--5-5-5-5--5-|

D#|------------------------------------------------|
A#|------------------------------------------------|
F#|-7-7-7-7--9--9-9-9-9--9--9-9-9-9--9--9-9--9~~~~-|
C#|-0-0-0-0--0--0-0-0-0--0--0-0-0-0--0--0-0--0~~~~-|
G#|-x-x-x-x--x--x-x-x-x--x--x-x-x-x--x--x-x--x-----|
C#|-5-5-5-5--7--7-7-7-7--7--7-7-7-7--7--7-7--7~~~~-|
comments
We did not receive enough feedback on this tab! Please rate:
print report bad tab
1 2 3 4 5
I want to post or [tab]
guest
You may want to rate the tab now too:
select rating
Please do not post tabs as comments. Select "correction" instead!