Oops, an error
Loading. Please wait.

History Bass Tab

version 2
version 2

Whole song

Interactive

741 views 1 this week
no commentswrite comment
1 2 3 4 5
2 more votes to show rating
add to favorites
launch autoscroll
font size
0
reset
guitar tuner
Autoscroll
slow
fast
+/-
esc
set tempo
stop
Help us to improve Ultimate-Guitar.com Take our survey!
×
This is my first tab on the bass parts for hstory. I'm sure you'll like it.
I think it's right. Check it out and hit me back if you like it or not.
fuegy_thao@hotmail.com

everything is on standard.

intro/ending:play a couple of times then pull off. let the last note ring.
g|--------------------|
d|--8p0--4p0--6p0-6---|
a|--------------------|
e|--------------------|

verse/chorus:play along with it.
g|-------------------------|
d|--8-0---4-0--------6-0---|
a|--------------4-0--------|
e|-------------------------|

bridge:let the last note ring.
g|------------------|
d|--8---4-----------|
a|----------4---3---|
e|------------------|

that is all. hope you liked it.




Suggest correction
Give kudos to tab author, rate the tab!
1 2 3 4 5
comments
print report bad tab
guest
You may want to rate the tab now too:
select rating
Wanna post a correction for this tab? Suggest correction