Oops, an error
Loading. Please wait.

History Tab

version 2
version 2

Whole song

Interactive

42,304 views 18 this week
15 commentsread comments
1 2 3 4 5
x 24
add to favorites
launch autoscroll
font size
0
reset
how to read this tab
guitar tuner
×
Best way to learn
"History"
Autoscroll
slow
fast
+/-
esc
set tempo
stop
Author
Difficulty
novice
Funeral For A Friend
History
Hours (2005)
Tuning; DbAbDbGbBbEb
Tabbed by; Carlson2000

[Guitar 1]
Strum each chord 8 times, except when they have ~ after them, where you only play once
let ring.

[Intro]
e|--------------|
B|--------------|
G|-11--7--9--9~-|
D|-9---5--7--7~-|
A|-9---5--7--7~-|
E|-9---5--7--7~-|

[Chorus]
e|-------------|
B|-------------|
G|-11--7--7--9-| x2
D|-9---5--7--7-|
A|-9---5--0--7-|
E|-9---5--0--7-|

[Verse]
e|-------------|
B|-------------|
G|-11--7--9--9-| x4
D|-9---5--7--7-|
A|-9---5--7--7-|
E|-9---5--7--7-|

[Repeat Chorus]
[Verse]
[Chorus x2]

[Bridge]
e|---------------|
B|---------------|
G|-11--11--11--9-|
D|-9---9---9---7-|
A|-9---10--9---9-|
E|-9---9---------|

[Repeat Chorus x2]
[Intro]


[Guitar 2]
[Intro - Silent]
[Chorus]
e|----------------------------------------------------|
B|----------------------------------------------------|
G|----11-12-14-----11-12-14-----11-12-14-----11-12-11-|
D|-12-----------12-----------12-----------12----------|(x2)
A|----------------------------------------------------|
E|----------------------------------------------------|

[Verse]
e|---------------------------------------------------|
B|---------------------------------------------------|
G|-------7------------7-----------6------------6-----|
D|-----7---7--------7---7--------7--7--------7---7---|(x4)
A|---9-------9----9-------9----9------7----9-------7-|
E|-9------------9------------9-----------9-----------|

[Chorus]
e|----------------------------------------------------|
B|----------------------------------------------------|
G|----11-12-14-----11-12-14-----11-12-14-----11-12-11-|
D|-12-----------12-----------12-----------12----------|
A|----------------------------------------------------|
E|----------------------------------------------------|

[Verse]
e|---------------------------------------------------|
B|---------------------------------------------------|
G|-------7------------7-----------6------------6-----|
D|-----7---7--------7---7--------7--7--------7---7---|(x4)
A|---9-------9----9-------9----9------7----9-------7-|
E|-9------------9------------9-----------9-----------|

[Chorus]
e|----------------------------------------------------|
B|----------------------------------------------------|
G|----11-12-14-----11-12-14-----11-12-14-----11-12-11-|
D|-12-----------12-----------12-----------12----------|(x2)
A|----------------------------------------------------|
E|----------------------------------------------------|

[Bridge - silent]
[Guitar 2]

[Chorus]
e|----------------------------------------------------|
B|----------------------------------------------------|
G|----11-12-14-----11-12-14-----11-12-14-----11-12-11-|
D|-12-----------12-----------12-----------12----------|(x2)
A|----------------------------------------------------|
E|----------------------------------------------------|
Suggest correction
comments
print report bad tab
15 comments total. Showing first comments.
0 reply
amnon 102 Nov 12, 2005 03:03 AM

well my ear isnt the best yet but it sounds right to me. thanks

0 reply
sarah dow 10 Nov 27, 2005 08:53 AM

this sounds really good but the riff for the second guitar isnt needed you could just keep going with the main tune, much easier. This is brill btw, great stuff :) thanks

0 reply
rockchick45 41 Jan 31, 2006 04:03 AM

this is cool

guest
You may want to rate the tab now too:
select rating
Wanna post a correction for this tab? Suggest correction