Oops, an error
Loading. Please wait.

History Tab

version 3
version 3

Whole song

Interactive

8,240 views 15 this week
7 commentsread comments
1 2 3 4 5
excellent!
x 7
add to favorites
launch autoscroll
font size
0
reset
how to read this tab
guitar tuner
Autoscroll
slow
fast
+/-
esc
set tempo
stop
Help us to improve Ultimate-Guitar.com Take our survey!
×
Author
Difficulty
novice
-------------------------------------------------------------------------------
                             History - Funeral for a Friend

                                          Hours
-------------------------------------------------------------------------------
Tabbed by: Jon Horton ( jon.deftones @ gmail.com )

Tuning: Standard FFAF, dropped d then 1 step down
Awesomenss: Much

Bit af a tune, you should find it easy enough to know what goes where....!
I don't know if Kris or Darren plays which bit so they're now guitar 1 + 2 !




Intro / Outro: G1 Work strum pattern for yourself, G2 doesn't play
|--------------------------------------------------------------------------|
|--------------------------------------------------------------------------|
|--11---7----9-------------------------------------------------------------|
|--0----0----0-------------------------------------------------------------|
|--x----x----x-------------------------------------------------------------|
|--9----5----7-------------------------------------------------------------|


Verse pt1 and Chorus: G1
|--------------------------------------------------------------------------|
|--------------------------------------------------------------------------|
|--11---7----7----9--------------------------------------------------------|
|--9----5----7----7--------------------------------------------------------|
|--9----5----0----7--------------------------------------------------------|
|--9----5----0----7--------------------------------------------------------|


Verse pt 1 and Chorus: G2
|--------------------------------------------------------------------------|
|--------------------------------------------------------------------------|
|-----11-12-14---------11-12-11--------------------------------------------|
|--12---------------12-----------------------------------------------------|
|--------------------------------------------------------------------------|
|--------------------------------------------------------------------------|
     this x3        then this x1


Verse pt2: G1 strums "To see a friend bleed to death..."
|--------------------------------------------------------------------------|
|--------------------------------------------------------------------------|
|--11---7----9-------------------------------------------------------------|
|--9----5----7-------------------------------------------------------------|
|--9----5----7-------------------------------------------------------------|
|--9----5----7-------------------------------------------------------------|


Verse pt2: G2
|--------------------------------------------------------------------------|
|--------------------------------------------------------------------------|
|------11----9-------------------------------------------------------------|
|----12------9-------------------------------------------------------------|
|---9--------9-------------------------------------------------------------|
|--9---------9-------------------------------------------------------------|
   x2      then x2


Middle: G1 "It's all mine etc" Strum each segment
|--------------------------------------------------------------------------|
|--------------------------------------------------------------------------|
|-----11--------11-------11--------11--------------------------------------|
|-----9---------9--------9---------9---------------------------------------|
|--9---------10-------0---------7------------------------------------------|
|--9---------9--------7---------7------------------------------------------|
          

| /  slide up
| \  slide down
| h  hammer-on
| p  pull-off
| ~  vibrato
| +  harmonic
| x  Mute note
===============================================================================
Suggest correction
comments
print report bad tab
7 comments total. Showing first comments.
0 reply
allthatfails 41 wrote on December 28 2005, 04:03 am

I got Verse pt2: G2 wrong, the secont 9999 should all be picked just as the first part was

0 reply
George898 40 wrote on February 16 2006, 02:13 pm

that is obviously the best version. Thnx m8

0 reply
George898 40 wrote on March 27 2006, 09:02 am

great intro

guest
You may want to rate the tab now too:
select rating
Wanna post a correction for this tab? Suggest correction