Oops, an error
Loading. Please wait.

History Tab

version 4
version 4

Whole song

Interactive

1,518 views 1 this week
no commentswrite comment
1 2 3 4 5
please rate
add to favorites
launch autoscroll
font size
0
reset
how to read this tab
guitar tuner
Autoscroll
slow
fast
+/-
esc
set tempo
stop
Help us to improve Ultimate-Guitar.com Take our survey!
×
Author
Difficulty
novice
-------------------------------------------------------------------------------
                             History - Funeral For A Friend
-------------------------------------------------------------------------------
Tabbed by:Teeb
Email:tom.moore.yay@hotmail.com

Tuning:DbAbDbGbBbEb

Hi. yeah you have to figure out the strumming (its not hard)

Intro 
|--2----0----0----0-----|
|--2----3----0----0-----|
|--4----0----2----2-----|
|--4----0----2----2-----| 
|--2---------0----0-----|
|-----------------------|

Verse 1
|--2----0----0----0-----|
|--2----3----0----0-----|
|--4----0----2----2-----|
|--4----0----2----2-----|
|--2---------0----0-----|
|-----------------------|

Chorus
|--2----0----0----0-----|
|--2----3----3----0-----|
|--4----0----2----2-----|
|--4----0----0----2-----|
|--2--------------0-----|
|-----------------------|


Verse 2
|--2----0----0----0-----|
|--2----3----0----0-----|
|--4----0----2----2-----|
|--4----0----2----2-----|
|--2---------0----0-----|
|-----------------------|


Chorus
|--2----0----0----0-----|
|--2----3----3----0-----|
|--4----0----2----2-----|
|--4----0----0----2-----|
|--2--------------0-----|
|-----------------------|

Verse 3
|--2----0----0----0-----|
|--2----3----0----0-----|
|--4----0----2----2-----|
|--4----0----2----2-----|
|--2---------0----0-----|
|-----------------------|


Chorus
|--2----0----0----0-----|
|--2----3----3----0-----|
|--4----0----2----2-----| x2
|--4----0----0----2-----|
|--2--------------0-----|
|-----------------------|

Bridge
|--2---2---4---0------|
|--2---2---0---5------|
|--4---4---4---2------|
|--4---5---4---4------|
|--2---2--------------|
|---------------------|

Chorus
|--2----0----0----0-----|
|--2----3----3----0-----|
|--4----0----2----2-----| x2
|--4----0----0----2-----|
|--2--------------0-----|
|-----------------------|

Outro 
|--2----0----0----0-----|
|--2----3----0----0-----|
|--4----0----2----2-----|
|--4----0----2----2-----| 
|--2---------0----0-----|
|-----------------------|
Suggest correction
Give kudos to tab author, rate the tab!
1 2 3 4 5
comments
print report bad tab
guest
You may want to rate the tab now too:
select rating
Wanna post a correction for this tab? Suggest correction