Oops, an error
Loading. Please wait.

History Tab

version 5
version 5

Whole song

Interactive

3,813 views 1 this week
no commentswrite comment
1 2 3 4 5
2 more votes to show rating
add to favorites
launch autoscroll
font size
0
reset
how to read this tab
guitar tuner
Autoscroll
slow
fast
+/-
esc
set tempo
stop
Help us to improve Ultimate-Guitar.com Take our survey!
×
Author
Tuning
D A D G B E
Funeral For A Friend - History

Guitar 1

INTRO
--------------|
--------------|
-11--7--9--9~-|
-9---5--7--7~-|
-9---5--7--7~-|
-9---5--7--7~-|


CHORUS
-------------|
-------------|
-11--7--7--9-| x2
-9---5--7--7-|
-9---5--0--7-|
-9---5--0--7-|


VERSE
-------------|
-------------|
-11--7--9--9-| x4
-9---5--7--7-|
-9---5--7--7-|
-9---5--7--7-|


CHORUS
-------------|
-------------|
-11--7--7--9-| x2
-9---5--7--7-|
-9---5--0--7-|
-9---5--0--7-|


VERSE
-------------|
-------------|
-11--7--9--9-| x4
-9---5--7--7-|
-9---5--7--7-|
-9---5--7--7-|


CHORUS
-------------|
-------------|
-11--7--7--9-| x4
-9---5--7--7-|
-9---5--0--7-|
-9---5--0--7-|


BRIDGE
---------------|
---------------|
-11--11--11--9-|
-9---9---9---7-|
-9---10--9---9-|
-9---9---------|

CHORUS
-------------|
-------------|
-11--7--7--9-| x2
-9---5--7--7-|
-9---5--0--7-|
-9---5--0--7-|

OUTRO
--------------|
--------------|
-11--7--9--9~-|
-9---5--7--7~-|
-9---5--7--7~-|
-9---5--7--7~-|


Guitar 2

INTRO - Silent

CHORUS
-9-----------------------------|
---6-7-9--6-7-9--6-7-9--6-7-6--|
-------------------------------|
-------------------------------|x2
-------------------------------|
-------------------------------|


VERSE
---------------------------------------------------|
---------------------------------------------------|
-------7------------7-----------6------------6-----|
-----7---7--------7---7--------7--7--------7---7---| x4
---9-------9----9-------9----9------7----9-------7-|
-9------------9------------9-----------9-----------|


CHORUS
-9-----------------------------|
---6-7-9--6-7-9--6-7-9--6-7-6--|
-------------------------------|
-------------------------------|x2
-------------------------------|
-------------------------------|


VERSE
---------------------------------------------------|
---------------------------------------------------|
-------7------------7-----------6------------6-----|
-----7---7--------7---7--------7--7--------7---7---| x4
---9-------9----9-------9----9------7----9-------7-|
-9------------9------------9-----------9-----------|


CHORUS
-9-----------------------------|
---6-7-9--6-7-9--6-7-9--6-7-6--|
-------------------------------|
-------------------------------|x4
-------------------------------|
-------------------------------|


BRIDGE - silent


CHORUS
-9-----------------------------|
---6-7-9--6-7-9--6-7-9--6-7-6--|
-------------------------------|
-------------------------------|x2
-------------------------------|
-------------------------------|


OUTRO - Silent
Suggest correction
Give kudos to tab author, rate the tab!
1 2 3 4 5
comments
print report bad tab
guest
You may want to rate the tab now too:
select rating
Wanna post a correction for this tab? Suggest correction