Oops, an error
Loading. Please wait.

I Am The Arsonist Tab

version 1
version 1

Whole song

Interactive

658 views 1 this week
no commentswrite comment
1 2 3 4 5
please rate
add to favorites
launch autoscroll
font size
0
reset
how to read this tab
guitar tuner
Autoscroll
slow
fast
+/-
esc
set tempo
stop
Help us to improve Ultimate-Guitar.com Take our survey!
×
Author
Difficulty
Tuning
novice
D A D G B E
#----------------------------------PLEASE NOTE---------------------------------#
#This file is the author's own work and represents their interpretation of the #
#song. You may only use this file for private study, scholarship, or research. #
#------------------------------------------------------------------------------#

I Am The Arsonist
As recorded by Funeral For A Friend


        



Gtr I (D A D G B E) - 'Untitled'

   Verse 1 & 2            Verse 1 & 2
    Q=100
   4/4
    Gtr I
     E  E  E  E  E E E E   E E E E E E E S S
||-----------------------|-------------------|
||o----------------------|-------------------|
||-----------------------|-------------------|
||--11-11-11-11-11-7-7-9-|-9-9-9-9-9-9-9-9-9-|
||o--0--0--0--0--0-0-0-0-|-0-0-0-0-0-0-0-0-0-|
||-----------------------|-------------------|


  E E E E E E E E   E E E E E E E S S  6x
|-----------------|--------------------||
|-----------------|-------------------o||
|-----------------|--------------------||
|-7-7-7-7-7-7-7-9-|-9-9-9-9-9-9-9-9-9--||
|-8-8-8-8-8-7-8-9-|-9-9-9-9-9-9-9-9-9-o||
|-----------------|--------------------||


 Bridge
   Q   Q.     E    E   E    +H     +Q.   E
|-------------------------|----------------|
|-------------------------|----------------|
|-------------------------|----------------|
|-11--11----(11)-(11)--7--|-(7)----(7)---9-|
|--9---9------7----9--(9)-|-(9)----(9)---7-|
|--0---0-----(0)--(0)-(0)-|-(0)----(0)-----|


   Q   Q.     E    E   E    +H     +Q.   S S
|-------------------------|-------------------|
|-------------------------|-------------------|
|-------------------------|-------------------|
|-11--11----(11)-(11)--7--|-(7)----(7)---9-9--|
|--9---9------7----9--(9)-|-(9)----(9)---9-9--|
|--0---0-----(0)--(0)-(0)-|-(0)----(0)--------|


   Verse 3
   4/4
     E  E  E  E  E E E E   E E E E E E E S S
||-----------------------|-------------------|
||o----------------------|-------------------|
||-----------------------|-------------------|
||--11-11-11-11-11-7-7-9-|-9-9-9-9-9-9-9-9-9-|
||o--0--0--0--0--0-0-0-0-|-0-0-0-0-0-0-0-0-0-|
||-----------------------|-------------------|


  E E E E E E E E   E E E E E E E S S  4x
|-----------------|--------------------||
|-----------------|-------------------o||
|-----------------|--------------------||
|-7-7-7-7-7-7-7-9-|-9-9-9-9-9-9-9-9-9--||
|-8-8-8-8-8-7-8-9-|-9-9-9-9-9-9-9-9-9-o||
|-----------------|--------------------||


 Bridge
   Q   Q.     E    E   E    +H     +Q.   E    Q   Q.     E    E   E    +W
|-------------------------|----------------|-------------------------|--------|
|-------------------------|----------------|-------------------------|--------|
|-------------------------|----------------|-------------------------|--------|
|-11--11----(11)-(11)--7--|-(7)----(7)---9-|-11--11----(11)-(11)--7--|-(7)----|
|--9---9------7----9--(9)-|-(9)----(9)---7-|--9---9------7----9--(9)-|-(9)----|
|--0---0-----(0)--(0)-(0)-|-(0)----(0)-----|--0---0------0---(0)-(0)-|-(0)----|


   Chorus
    E  Q.   E  Q.      E   H      +Q.    4x
||------------------|--------------------||
||o-----------------|-------------------o||
||----11-------6----|-----14-----(14)----||
||--7--9----4--4----|-----12-----(12)----||
||o-9--9----4--4----|-12--12-----(12)---o||
||-----9----4-(4)---|-12-(12)----(12)----||


   Verse 4
   4/4
     E  E  E  E  E E E E   E E E E E E E S S
||-----------------------|-------------------|
||o----------------------|-------------------|
||-----------------------|-------------------|
||--11-11-11-11-11-7-7-9-|-9-9-9-9-9-9-9-9-9-|
||o--0--0--0--0--0-0-0-0-|-0-0-0-0-0-0-0-0-0-|
||-----------------------|-------------------|


  E E E E E E E E   E E E E E E E S S  4x
|-----------------|--------------------||
|-----------------|-------------------o||
|-----------------|--------------------||
|-7-7-7-7-7-7-7-9-|-9-9-9-9-9-9-9-9-9--||
|-8-8-8-8-8-7-8-9-|-9-9-9-9-9-9-9-9-9-o||
|-----------------|--------------------||


 Bridge
   Q   Q.     E    E   E    +H     +Q.   E    Q   Q.     E    E   E    +W
|-------------------------|----------------|-------------------------|--------|
|-------------------------|----------------|-------------------------|--------|
|-------------------------|----------------|-------------------------|--------|
|-11--11----(11)-(11)--7--|-(7)----(7)---9-|-11--11----(11)-(11)--7--|-(7)----|
|--9---9------7----9--(9)-|-(9)----(9)---7-|--9---9------7----9--(9)-|-(9)----|
|--0---0-----(0)--(0)-(0)-|-(0)----(0)-----|--0---0------0---(0)-(0)-|-(0)----|


   Chorus
    E  Q.   E  Q.      E   H..     7x
||------------------|--------------||
||o-----------------|-------------o||
||----11-------6----|-----14-------||
||--7--9----4--4----|-----12-------||
||o-9--9----4--4----|-12--12------o||
||-----9----4-(4)---|-12-(12)------||


  E  Q.   E  Q.        E  E  E  E  E  E  E  E
|-----------------||---------------------------||
|-----------------||o-------------------------o||
|---11-------6----||---------------------------||
|-7--9----4--4----||--12-12-12-12-12-12-12-12--||
|-9--9----4--4----||o-12-12-12-12-12-12-12-12-o||
|----9----4-(4)---||--12-12-12-12-12-12-12-12--||


   4/4
     E  E  E  E  E  E E  E    E  E E  E  E  E E  E
||-------------------------|-----------------------|
||o------------------------|-----------------------|
||---9--9--9--9--9--9-x--9-|--9--9-x--9--9--9-x-14-|
||--11-11-11-11-11-11-x--9-|--9--9-x--9--9--9-x-12-|
||o--9--9--9--9--9--9-x-11-|-11-11-x-12-12-12-x-12-|
||-------------------------|--------------------12-|


   E  E  E  E  E  E  E  E    E  E  E  E  E  E  E  E  3x
|-------------------------|--------------------------||
|-------------------------|-------------------------o||
|-14-14-14-14-14-14-14-14-|-14-14-14-14-14-14-14-14--||
|-12-12-12-12-12-12-12-12-|-12-12-12-12-12-12-12-12--||
|-12-12-12-12-12-12-12-12-|-12-12-12-12-12-12-12-12-o||
|-12-12-12-12-12-12-12-12-|-12-12-12-12-12-12-12-12--||


   E  E  E  E  E  E E  E    E  E E  E  E  E E  E    E  E  E  E  E  E E  E
|------------------------|-----------------------|------------------------|
|------------------------|-----------------------|------------------------|
|--9--9--9--9--9--9-x--9-|--9--9-x--9--9--9-x-14-|-14-14-14-14-14-14-x--9-|
|-11-11-11-11-11-11-x--9-|--9--9-x--9--9--9-x-12-|-12-12-12-12-12-12-x--9-|
|--9--9--9--9--9--9-x-11-|-11-11-x-12-12-12-x-12-|-12-12-12-12-12-12-x-11-|
|------------------------|--------------------12-|-12-12-12-12-12-12------|


   E  E E  E  E  E E  E    E  E  E  E  E  E  E  E    E  E  E  E  E  E  E  E
|-----------------------|-------------------------|-------------------------|
|-----------------------|-------------------------|-------------------------|
|--9--9-x--9--9--9-x-14-|-14-14-14-14-14-14-14-14-|-14-14-14-14-14-14-14-14-|
|--9--9-x--9--9--9-x-12-|-12-12-12-12-12-12-12-12-|-12-12-12-12-12-12-12-12-|
|-11-11-x-12-12-12-x-12-|-12-12-12-12-12-12-12-12-|-12-12-12-12-12-12-12-12-|
|--------------------12-|-12-12-12-12-12-12-12-12-|-12-12-12-12-12-12-12-12-|


   3/4                  4/4
     H.       E E H      +E  S S H.        E E H.
||--------|------------|-----------------|------------||
||o-------|------------|-----------------|-----------o||
||--------|------------|-----------------|------------||
||--11----|---7-7-9----|-(9)-7-7-7-------|-7-7-9------||
||o--0----|---0-0-0----|-(0)-7-7-8-------|-7-8-9-----o||
||---7----|------------|-----------------|------------||



Duration Legend
---------------
W - whole; H - half; Q - quarter; E - 8th; S - 16th; T - 32nd; X - 64th; a - acciaccatura
+ - note tied to previous; . - note dotted; .. - note double dotted
Uncapitalized letters represent notes that are staccato (1/2 duration)
Irregular groupings are notated above the duration line
Duration letters will always appear directly above the note/fret number it represents the
duration for.  Duration letters with no fret number below them represent rests.  Multi-
bar rests are notated in the form Wxn, where n is the number of bars to rest for.  Low
melody durations appear below the staff

Tablature Legend
----------------
 h   - hammer-on
 p   - pull-off
 b   - bend
 pb  - pre-bend
 r   - bend release (if no number after the r, then release immediately)
 /\  - slide into or out of (from/to "nowhere")
 s   - legato slide
 S   - shift slide
 - natural harmonic
[n]  - artificial harmonic
n(n) - tapped harmonic
 ~   - vibrato
 tr  - trill
 T   - tap
 TP  - trem. picking
 PM  - palm muting
\n/  - tremolo bar dip; n = amount to dip
 \n  - tremolo bar down
 n/  - tremolo bar up
/n\  - tremolo bar inverted dip
 =   - hold bend; also acts as connecting device for hammers/pulls
 <> - volume swell (louder/softer)
 x   - on rhythm slash represents muted slash
 o   - on rhythm slash represents single note slash

Misc Legend
-----------
 |  - bar
||  - double bar
||o - repeat start
o|| - repeat end
*|  - double bar (ending)
 :  - bar (freetime)
 $  - Segno
 &  - Coda
Tempo markers -  = BPM(8/16=s8/s16), where s8 = swing 8ths, s16 = swing 16ths


** Generated using Power Tab Editor by Brad Larsen: The Official Power Tab Web Site
Suggest correction
What's this?
You can suggest a correction to this tab. Community and Mods will review your correction and vote to approve or reject it.
comments
We did not receive enough feedback on this tab! Please rate:
print report bad tab
1 2 3 4 5
guest
You may want to rate the tab now too:
select rating
Please do not post tabs as comments. Select "correction" instead!