Oops, an error
Loading. Please wait.

I Am The Arsonist Tab

version 2
version 2

Whole song

Interactive

1,942 views 1 this week
no commentswrite comment
1 2 3 4 5
accurate
x 4
add to favorites
launch autoscroll
font size
0
reset
how to read this tab
guitar tuner
Tab Pro tools
  • play this tab
  • loop segment
  • change instrument
  • show fretboard
  • metronome
×
Best way to learn
"I Am The Arsonist"
Autoscroll
slow
fast
+/-
esc
set tempo
stop
Difficulty
novice
-----------------------------------------------------------------
            I Am the Arsonist-Funeral For A Friend
-----------------------------------------------------------------
Tabbed by: jonny_yeah

Email: jonnytheman101@hotmail.com

Tuning: Drop D

Verse

Guitar 1

e|-----------------------------------------------------------------|
B|-2-2-2-2-2-0---0-0-0-0-0-0-0-0-0--0-0-0-0--0-—0--0-0-0-0-0-0-0-0-|
G|-2-2-2-2-2---2-2-2-2-2-2-2-2-2-2--2-2-2-2--2-—2--2-2-2-2-2-2-2-2-|
D|-2-2-2-2-2-----2-2-2-2-2-2-2-2-3--3-3-3-3--2—-3--4-4-4-4-4-4-4-4-|
A|-0-0-0-0-0-----0-0-0-0-0-0-0-0-0--0-0-0-0--0--0--0-0-0-0-0-0-0-0-|
E|-----------------------------------------------------------------|

Guitar 2

e|--------------------------------------|
B|-----2--------3--------5--------3-----|
G|---2---2----2---2----2---2----2---2---|
D|-2--------2--------2--------2---------|
A|--------------------------------------|
E|--------------------------------------|


Break

e|----------------------------|
B|----------------------------|
G|-2-2-----2--2-2------2------|
D|-0-0-2-4----0-0--2-4--------|
A|-0-0--------0-0-------------|
E|-0-0--------0-0-------------|

Verse

Break

Chorus

Guitar 1

e|-----------------------------|
B|-----------------------------|
G|-4---2------2------2------2--|
D|-4-4-0--4-4-0--4-4-0--4-4-0--|
A|-2-x-0--2-x-0--2---0--2---0--|
E|---4-0----4-0----4-0----4-0--|

Guitar 2

e|-------------------------------------------------------------|
B|-2-------3-------5-------------------------------------------|
G|---2-2-2---2-2-2---------------------------------------------| x4
D|-------------------------------------------------------------|
A|-------------------------------------------------------------|
E|-------------------------------------------------------------|

Verse

Chorus x2

Interlude

I didn’t write out how many times to play the chords in this bit
So listen to the song.

Guitar 1

e|--------------|
B|--------------|
G|--2-7-6-4-----|
D|--0-0-7-5-----|
A|--5-9-7-5-----|
E|--5-9---------|

Guitar 2

e|---------------------------------------|
B|--3333333333333333-22222222-0000-2222--|
G|---------------------------------------|
D|---------------------------------------|
A|---------------------------------------|
E|---------------------------------------|

Play the verse riff at the end at the end and finish.
comments
print report bad tab
I want to post or [tab]
guest
You may want to rate the tab now too:
select rating
Please do not post tabs as comments. Select "correction" instead!