Oops, an error
Loading. Please wait.

Into Oblivion Reunion Bass Tab

version 1
version 1

Whole song

Interactive

4,082 views 1 this week
no commentswrite comment
1 2 3 4 5
accurate
x 5
add to favorites
launch autoscroll
font size
0
reset
guitar tuner
Tab Pro tools
  • play this tab
  • loop segment
  • change instrument
  • show fretboard
  • metronome
×
Best way to learn
"Into Oblivion Reunion"
Autoscroll
slow
fast
+/-
esc
set tempo
stop
Contributor
Into Oblivion
Funeral for a Friend


I tabbed this by ear and im sure its right 99%
could be done in drop D but wouldnt make a difference...


Intro                                > > > > > > gradualy get louder
G|------------------------------------------------------------------|
D|-2~---------------------------------------------------------------|
A|-----------------0~--------------44444444444444442222222222222222-|
E|------------------------------------------------------------------|


Verse
G|------------------------------------------------------------------|
D|-2222222222222222-------------------------------------------------|
A|-----------------000000000000000044444444444444442222222222222222-|
E|------------------------------------------------------------------|

G|------------------------------------------------------------------|
D|-2222222222222222-------------------------------------------------|
A|-----------------000000000000000044444444444444442222222222222244-|
 theres two 4's there. dont miss em!
E|------------------------------------------------------------------|

G|------------------------------------------------------------------|
D|-2222222222222222-------------------------------------------------|
A|-----------------000000000000000044444444444444442222222222222222-|
E|------------------------------------------------------------------|


Chorus
G|-------------------------------------|
D|-------------------------------------|
A|-44444444-00000000----------22222222-|
E|-------------------00000000----------|

G|---------------------------------------------|
D|---------------------------------------------|
A|-44444444-00000000----------2222222222222222-|
E|-------------------00000000------------------|

G|------------------------------------------------------------------|      
D|------------------------------------------------------------------|
A|-----------------000000000000000044444444444444442222222222222222-|      
E|-0000000000000000-------------------------------------------------|      


Verse
G|------------------------------------------------------------------|
D|-2222222222222222-------------------------------------------------|
A|-----------------000000000000000044444444444444442222222222222222-|
E|------------------------------------------------------------------|

G|------------------------------------------------------------------|
D|-2222222222222222-------------------------------------------------|
A|-----------------000000000000000044444444444444442222222222222244-|
E|------------------------------------------------------------------|

G|------------------------------------------------------------------|
D|-2222222222222222-------------------------------------------------|
A|-----------------00000000000000004444444444444444222222222222x-x--|
E|--------------------------------------------------------------x-x-|
 put your fretting hand so that your fingers mute over the 2nd fret of both strings lightly.


Chorus
G|-------------------------------------|
D|-------------------------------------| x3
A|-44444444-00000000----------22222222-|
E|-------------------00000000----------|

G|--------------------------------------------------|
D|--------------------------------------------------|
A|-44444444-00000000----------2222222222222244------|
E|-------------------00000000-----------------0~----|


Break...


Bridge
G|------------------------------------------------------------------|
D|------------------------------------------------------------------|
A|-----------------00-000-000-000-044-444-444-444-422-222-222-22222-|
E|-00-000-000-000-0-------------------------------------------------|


Final Chorus
G|------------------------------------------------------------------|
D|------------------------------------------------------------------| x3
A|-----------------000000000000000044444444444444442222222222222222-|
E|-0000000000000000-------------------------------------------------|

play an open E for the end....
G|--------|
D|--------|
A|--------|
E|-0~-----|

easy.
comments
print report bad tab
I want to post or [tab]
guest
You may want to rate the tab now too:
select rating
Please do not post tabs as comments. Select "correction" instead!