Oops, an error
Loading. Please wait.

Into Oblivion Reunion Tab

version 1
version 1

Intro

Whole song

Interactive

3,005 views 1 this week
no commentswrite comment
1 2 3 4 5
accurate
x 5
add to favorites
launch autoscroll
font size
0
reset
how to read this tab
guitar tuner
Tab Pro tools
  • play this tab
  • loop segment
  • change instrument
  • show fretboard
  • metronome
×
Best way to learn
"Into Oblivion Reunion"
Autoscroll
slow
fast
+/-
esc
set tempo
stop
Contributor
Difficulty
novice
Hey, ive been playing for a year and this is my first tab. Please rate. This took me 
5 mins to work out. Im 100% sure its correct. Sounds right anyway.
Standard Tuning.
Thanks, Ryan

e-x
B-x
G-9           Play the 9 on the G and mute all other strings with fingers
D-x           and strum eight times.
A-x
E-x

e--------------------|
B-12-10-9------------|
G---------11-9-11-9~-|
D--------------------|
A--------------------|
E--------------------|

e-x
B-x
G-9           Play the 9 on the G and mute all other strings with fingers
D-x           and strum eight times.
A-x
E-x

e-------------------------------------------------------------------------------|
B-12-10-9--------------9-10-9--------9-10-9-------------------------------------|
G---------11-9-11-9-11--------11--11--------11-9-9-11-11-11-13-13-13-11-11-9-9~-|
D-------------------------------------------------------------------------------|
A-------------------------------------------------------------------------------|
E-------------------------------------------------------------------------------|
comments
print report bad tab
I want to post or [tab]
guest
You may want to rate the tab now too:
select rating
Please do not post tabs as comments. Select "correction" instead!