Oops, an error
Loading. Please wait.

Into Oblivion Reunion Tab

version 1
version 1

Whole song

Interactive

2,998 views 3 this week
4 commentsread comments
1 2 3 4 5
please rate
add to favorites
launch autoscroll
font size
0
reset
how to read this tab
guitar tuner
Autoscroll
slow
fast
+/-
esc
set tempo
stop
Help us to improve Ultimate-Guitar.com Take our survey!
×
Author
Tuning
C# G# C# F# A# D#
Tuning: Drop Db
Album: Tales Don't Tell Themselves

Legend:

=== means the different guitar parts; on top of the === are Kris' parts, and below the
are Darran's parts.

%%% means new section, i.e. Intro, verse, chorus, etc.

This is my first ever tab, so I don't know if the format is correct, but the tab itself
very accurate to me (Sorry if it's a mess by the way... I don't know how it'll turn out
I hit the submit button...)

|------------------------------------------|
|------------------------------------------|
|------------------------------------------|
|---------------3------8------12------10---|   Listen to the track to figure out the rhythm
|---------------3------8------12------10—--|
|---------------3------8------12------10---|

=================================================================

|--------------------------------------------------------------------------------|
|-----------13--11--10----------------------------------13--11--10---------------|
|-10--10-----------------12--10--12--10-10 10 -10----------------12--10--12--10--|
|--------------------------------------------------------------------------------|
|--------------------------------------------------------------------------------|
|--------------------------------------------------------------------------------|

|---------------------------------------------------------------------------------|
|---------10-11-10------------------10-11-10--------------------------------------|
|-----12-------------12------12-----------------12--10-10--12-12---14-14---12-12--|
|--12--------------------12-------------------------------------------------------|
|---------------------------------------------------------------------------------|
|---------------------------------------------------------------------------------|

%%%%%%%%%%%%%%%%%%%%%%%%%%%%%%%%%%%%%%%%%%%%%%%%%%%%%%%%

|-----------------------------5----------5----------3--|
|-----------------------------6----------6----------5--|
|-----------------------------3----------7----------5--|
|---------------3--------------------------------------|
|---------------3--------------------------------------|
|---------------3--------------------------------------|

|---------------------------------------------8----------------------------------------------------------------------------------------|
|----------5---6--------------------------------------------------------10-------------------8---10---------------------8--------------|
|-----5------------5---[x2]--------9---10---------10-----9---10------------10-------7---------------10---[x2]-------5-------5---5—[x2]-|
|---3---3---3---3----------------8---8-----8----8------8---8-----8-----8----------7---7---7----7------------------5---5---5---5--------|
|--------------------------------------------------------------------------------------------------------------------------------------|
|--------------------------------------------------------------------------------------------------------------------------------------|

%%%%%%%%%%%%%%%%%%%%%%%%%%%%%%%%%%%%%%%%%%%%%%%%%%%%%%%%%

|--------------------------------------------------------------------------------|
|--------------------------------------------------------------------------------|
|-----7------------------5---------------5---5----5------------------------------|
|-----7-----8-----3------5------[x2]-----5---5----5------3------8-----12-----10--|
listen to the track for the rhythm.
|-----5-----8-----3-----3----------------3---3----3------3------8-----12-----10--|
|-----0-----8-----3--------------------------------------3------8-----12-----10--|

===============================================================

|-------------------------------------------------------------------------------------------|
|--10--------------10-------------10---------------------------------------------------10---|
|------10------10-----10------10---10-----10--12--12--10—9------ [x2]-----12-----12--10--9--|
|-----------12--------------12-----------12-------------------------------------------------|
|-------------------------------------------------------------------------------------------|
|-------------------------------------------------------------------------------------------|

|--------------------------------------------------------------------------------|
|-----------13--11--10----------------------------------13--11--10---------------|
|-10--10-----------------12--10--12--10-10 10 -10----------------12--10--12--10--|
|--------------------------------------------------------------------------------|
|--------------------------------------------------------------------------------|
|--------------------------------------------------------------------------------|

|---------------------------------------------------------------------------------|
|---------10-11-10------------------10-11-10--------------------------------------|
|-----12-------------12------12-----------------12--10-10--12-12---14-14---12-12--|
|--12----------------------12-----------------------------------------------------|
|---------------------------------------------------------------------------------|
|---------------------------------------------------------------------------------|
%%%%%%%%%%%%%%%%%%%%%%%%%%%%%%%%%%%%%%%%%%%%%%%%%%%%%%%%%%%

|-------------------------------------------------------------------------------------------------------------------------------|
|-------------------------------------------------------------------------------------------------------------------------------|
|--------------------------------------------------------------------------------------------------------------5-5-5-5-5-5-5-5--|
|----------3--3--3--3--3--3--3--3--3-----------8-8-8-8-8-8-8-8-----------7-7-7-7-7-7-7-7-----------5-5-5-5-5-5-5-5--------------|
|----------3--3--3--3--3--3--3--3--3---[x2]---8-8-8-8-8-8-8-8---[x2]---5-5-5-5-5-5-5-5---[x2]---3-3-3-3-3-3-3-3---[x2]----------|
|----------3--3--3--3--3--3--3--3--3-----------8-8-8-8-8-8-8-8-----------0-0-0-0-0-0-0-0----------------------------------------|
     P.M. ----------------------------------------------------------------------------------------------------------------------|

|-------------------------------------------------------------------------------------------------|
|-------5-5-5-6-6-6-6-6--6-6-6-6-6-6-6-6---------------------------13-13-13-13-13-13-13-13-13-13--|
|-------5-5-5-5-5-5-5-5--5-5-5-5-5-5-5-5-------9-9-9-10-10-10-10-10-10-10-10-10-10-10-10-10-------|
|-------3-3-3-3-3-3-3-3--3-3-3-3-3-3-3-3-------8-8-8-8--8----8--8--8---8--8--8---8---8---8--8--8--|
|-------------------------------------------------------------------------------------------------|
|-------------------------------------------------------------------------------------------------|
 P.M. --------------------------------------------------------------------------------------------|

|-------------------------------------------------------------------------------|
|------8-8-8-10-10-10-10-10---------------8-8-8-8-8-8-8-8--8-8-8-8---X-X-X-X----|
|------7-7-7-7---7--7---9---9----[x2]------5-5-5-5-5-5-5-5--5-5-5-5---X-X-X-X---|
|------7-7-7-7---7--7---7---7---------------5-5-5-5-5-5-5-5--5-5-5-5---X-X-X-X--|
|-------------------------------------------------------------------------------|
|-------------------------------------------------------------------------------|
P.M. ---------------------------------------------------------------------------|

%%%%%%%%%%%%%%%%%%%%%%%%%%%%%%%%%%%%%%%%%%%%%%%%%%%%%%%%%%%

|----------------------------------------------------|
|----------------------------------------------------|
|-----7------------------5---------------5---5----5--|
|-----7-----8-----3-----5------[x4]----5---5----5----| And again….
|-----5-----8-----3-----3---------------3---3----3---|
|-----0-----8-----3----------------------------------|

===================================================================

|----------------------------------------------------------------------------------------------|
|--10--------------10-------------10---------------------------------------------------10------|
|------10------10-----10------10---10-----10--12--12--10—9------ [x4]-----12-----12--10--9-10--|
|------------12--------------12-----------12---------------------------------------------------|
|----------------------------------------------------------------------------------------------|
|----------------------------------------------------------------------------------------------|

%%%%%%%%%%%%%%%%%%%%%%%%%%%%%%%%%%%%%%%%%%%%%%%%%%%%%%%%%%%

|----------------------------|
|----------5---6-------------|
|-----5------------5---------|     [x2 ]
|---3---3---3---3------------|
|----------------------------|
|----------------------------|

|------------------------------------------------8-------------------------------------------------------------------------------------|
|----------5---6--------------------------------------------------------10-------------------8---10---------------------------8--------|

   [x2]
|---3---3---3---3----------------8---8-----8----8------8---8-----8-----8----------7---7---7----7------------------5---5---5---5--------|
|--------------------------------------------------------------------------------------------------------------------------------------|
|--------------------------------------------------------------------------------------------------------------------------------------|

===================================================================
Play this on the second repeat, the second time Matt sings “Home, now that…”

|------------------------------------------------------------------------------------------------------------------|
|------------------------------------------------------------------------------------------------------------------|
|------------------------------------------------------------------------------------------------------------------|
|------3-3----3-3-3---3-----------8-8---8-8-8---8-----------12-12---12-12-12---12---------10-10---10-10-10---10----|
|------3-3----3-3-3---3--[x2]---8-8---8-8-8---8---[x2]----12-12---12-12-12---12--[x2]--10-10---10-10-10---10-[x2]--|
|------3-3----3-3-3---3-----------8-8---8-8-8---8-----------12-12---12-12-12---12---------10-10---10-10-10---10----|
P.M. --------------------------------------------------------------------------------------------------------------|
%%%%%%%%%%%%%%%%%%%%%%%%%%%%%%%%%%%%%%%%%%%%%%%%%%%%%%%%%%%

|---------------------------------------------------------------------------------------------|
|----------------8--------10------------------------------------------------------------------|
|----------------x-[x4]---x—[x4]-----------------12--------14---------------------------------|

  [x2]
|------3-[x8]----------------------------8-[x8]--10--------12--------12—[x16]------10---[x16]-|
|------3---------------------------------8---------------------------12------------10---------|

|----------------------------------------------------------|
|----------------------------------------------------------|
|----------------------------------------------------------|
|---------------3------8------12------10-------------------|   [x2]
|---------------3------8------12------10—------------------|
|---------------3------8------12------10-------------------|


Finish on:

|------------|
|------------|
|------------|
|----3-------|
|----3-------|
|----3-------|

============================================

|--------------------------------------------------------------------------------|
|-----------13--11--10----------------------------------13--11--10---------------|
|-10--10-----------------12--10--12--10-10 10 -10----------------12--10--12--10--|
|--------------------------------------------------------------------------------|
|--------------------------------------------------------------------------------|
|--------------------------------------------------------------------------------|

|---------------------------------------------------------------------------------|
|---------10-11-10------------------10-11-10--------------------------------------|
|-----12-------------12------12-----------------12--10-10--12-12---14-14---12-12--|
|--12--------------------12-------------------------------------------------------|
|---------------------------------------------------------------------------------|
|---------------------------------------------------------------------------------|

Basically this with some variations in between

Finish on

|-----------|
|-----------|
|---10------|
|-----------|
|-----------|
|-----------|
Suggest correction
Give kudos to tab author, rate the tab!
1 2 3 4 5
comments
print report bad tab
4 comments total. Showing first comments.
0 reply
Ameya.Khare@isb 31 wrote on April 4 2007, 10:45 am

Damn it, this is my tab, and I posted it, but it's come out as unregistered... how do I fix that? By the way, I haven't managed to work out Darran's verse bits yet... so if anybody wants to fill me in that'd be great!

0 reply
shaunems 16 wrote on April 21 2007, 09:34 am

dude this tab is good just the 2 different guitar parts are hard to understand. Nice tab!!!!

0 reply
stratele 470 wrote on May 12 2007, 03:31 pm

messy... but a good tab well done.

guest
You may want to rate the tab now too:
select rating
Wanna post a correction for this tab? Suggest correction