Oops, an error
Loading. Please wait.

Into Oblivion Reunion Tab

version 3
version 3

Whole song

Interactive

3,812 views 3 this week
no commentswrite comment
1 2 3 4 5
accurate
x 3
add to favorites
launch autoscroll
font size
0
reset
how to read this tab
guitar tuner
Autoscroll
slow
fast
+/-
esc
set tempo
stop
Help us to improve Ultimate-Guitar.com Take our survey!
×
Author
Difficulty
novice
Into Oblivion (Reunion) standard tuning version
I know the song's played in drop C#, but this is for lazy asses who can't be bothered to 
their guitars... works fine...

Intro 1
Guitar 1
p.m.
e-------------------------------------------------|
b-------------------------------------------------|
g-1----------2----------6--------4----------------|
D-2----------2----------6--------4----------------|
A-2---------------------4--------2----------------|
E-0-----------------------------------------------|

Guitar 2 (string orchestra, if you can find one)
e-------------------------------------------------|
b-5--7--10--9--7--10--9--7--10--9--7--10--9-------|
g-------------------------------------------------|
D-------------------------------------------------|
A-------------------------------------------------|
E-------------------------------------------------|

Intro 2
Guitar 1
Heavy distortion
e-------------------------------------------------|
b-------------------------------------------------|
g-1--------------------2--------------------------|
D-2--------------------2--------------------------|
A-2-----------------------------------------------|
E-------------------------------------------------|

Guitar 2
e---------7-5-4----------------7-5-4--------------|
b-5---5---------7-5-7-5----5---------7-5-7-5------|
g-------------------------------------------------|
D-------------------------------------------------|
A-------------------------------------------------|
E-------------------------------------------------|

Guitar 1 (cont.)
e-------------------------------------------------|
b-------------------------------------------------|
g-6-----------------------------4-----------------|
D-6-----------------------------4-----------------|
A-4-----------------------------2-----------------|
E-------------------------------------------------|

Guitar 2 (cont.)
e-------------------------------------------------|
b---7-9-10-9-7-5---7-9-10-9-7-5-5--7--9--7--5-----|
g-6--------------6--------------------------------|
D-------------------------------------------------|
A-------------------------------------------------|
E-------------------------------------------------|

Verse
Guitar 1 (clean strumming)
e-------------------------------------------------|
b-------------------------------------------------|
g-1-----2-----6-----4-----------------------------|
D-2-----2-----6-----4-----------------------------|
A-2-----------4-----2-----------------------------|
E-------------------------------------------------|

Guitar 2 (halfway through the verse, start plucking)
e---------------------------7-----4----------------|
b----4-5-0---0-4-5-0--4-4-5---4-5------7-9-7-5-7-9-|
g--4-------4---------2-2-2-2-2-2-2---6-------------|
D-2-2-2-2-2-2-2-2-2-----------------6-6-6-6-6-6-6--|
A--------------------------------------------------|
E--------------------------------------------------|

Guitar 2(cont.)
e---------------------------------------------------|
b-7-5-----5-7-5-0-5-7-5-0---------------------------|
g------4--------------------------------------------|
D6-6--4-4--4-4-4-4-4-4-4----------------------------|
A---------------------------------------------------|
E---------------------------------------------------|

Chorus
Guitar 1 (x2)
e-------------------------------------------------|
b-------------------------------------------------|
g-6-----2-------1--------4------------------------|
D-6-----2-------2--------4------------------------|
A-4-------------2--------2------------------------|
E-------------------------------------------------|

Guitar 2
e-------------------------------------------------|
b-9--5--5--9--5--5--9--5--5-7--7--5-4-------------|
g------6--------6--------6------------------------|
D-------------------------------------------------|
A-------------------------------------------------|
E-------------------------------------------------|

e--------------------------------------------------|
b-9--5--5--9--5--5--9--5--5-7--7--5-4--7--7--5-4-5-|
g------6--------6--------6-------------------------|
D--------------------------------------------------|
A--------------------------------------------------|
E--------------------------------------------------|

Repeat Intro 2

Verse 2
Guitar 1
e-------------------------------------------------|
b-------------------------------------------------|
g-9-------888-999--11-11-11-11-11-11-11-11--------|
D-9(x 14)-999-999---9--9--9--9--9--9--9--9--------|
A-------------------------------------------------|
E-------------------------------------------------|

Guitar 1 (cont.)
e-------------------------------------------------|
b-------------------------------------------------|
g-13-13-13--11-11-11--999--888--999--111111-999---|
D-11-11-11--11-11-11--999--999--999---9-9-9-999---|
A-------------------------------------------------|
E-------------------------------------------------|

Guitar 1(cont.)
e-------------------------------------------------|
b-------------------------------------------------|
g-111111--999-------------------------------------|
D--9-9-9--999-------------------------------------|
A-------------------------------------------------|
E-------------------------------------------------|

Guitar 2 (halfway through again)
e---------------------------7-----4----------------|
b----4-5-0---0-4-5-0--4-4-5---4-5------7-9-7-5-7-9-|
g--4-------4---------2-2-2-2-2-2-2---6-------------|
D-2-2-2-2-2-2-2-2-2-----------------6-6-6-6-6-6-6--|
A--------------------------------------------------|
E--------------------------------------------------|

Guitar 2(cont.)
e-------------------------------------------------|
b-7-5-----5-7-5-0-5-7-5-0-------------------------|
g------4------------------------------------------|
D6-6--4-4--4-4-4-4-4-4-4--------------------------|
A-------------------------------------------------|
E-------------------------------------------------|

Chorus
Guitar 1 (x4)
e-------------------------------------------------|
b-------------------------------------------------|
g-6-----2-------1--------4------------------------|
D-6-----2-------2--------4------------------------|
A-4-------------2--------2------------------------|
E-------------------------------------------------|

Guitar 2 (x3)
e-------------------------------------------------|
b-9--5--5--9--5--5--9--5--5-7--7--5-4-------------|
g------6--------6--------6------------------------|
D-------------------------------------------------|
A-------------------------------------------------|
E-------------------------------------------------|

e--------------------------------------------------|
b-9--5--5--9--5--5--9--5--5-7--7--5-4--7-9-7-5-4-5-|
g------6--------6--------6-------------------------|
D--------------------------------------------------|
A--------------------------------------------------|
E--------------------------------------------------|


Bridge
Guitar 2 (plucking)
e-------------------------------------------------|
b-----4-5-0-0-4-5-0-0-----------------------------|
g---4---------------------------------------------|
D--2-2-2-2-2-2-2-2-2------------------------------|
A-------------------------------------------------|
E-------------------------------------------------|

Guitar 2(cont.)
e---------------------------7-----4----------------|
b----4-5-0---0-4-5-0--4-4-5---4-5------7-9-7-5-7-9-|
g--4-----------------2-2-2-2-2-2-2---6-------------|
D-2-2-2-2-2-2-2-2-2-----------------6-6-6-6-6-6-6--|
A--------------------------------------------------|
E--------------------------------------------------|

Guitar 2(cont.)
e-------------------------------------------------|
b-7-5-----5-7-5-0-5-7-5-0-------------------------|
g------4------------------------------------------|
D6-6--4-4--4-4-4-4-4-4-4--------------------------|
A-------------------------------------------------|
E-------------------------------------------------|

Guitar 1
p.m.
e-------------------------------------------------|
b-------------------------------------------------|
g-1-----------------2--------------6--------------|
D-2-----------------2--------------6--------------|
A-2--------------------------------4--------------|
E-------------------------------------------------|

Guitar 1 (cont.)
p.m.
e-------------------------------------------------|
b-------------------------------------------------|
g-4-----------------------------------------------|
D-4-----------------------------------------------|
A-2-----------------------------------------------|
E-------------------------------------------------|


Outro
Guitar 1 (distortion)
e-------------------------------------------------|
b-------------------------------------------------|
g-1--------------------2--------------------------|
D-2--------------------2--------------------------|
A-2-----------------------------------------------|
E-------------------------------------------------|


Guitar 2
e---------7-5-4----------------7-5-4--------------|
b-5---5---------7-5-7-5----5---------7-5-7-5------|
g-------------------------------------------------|
D-------------------------------------------------|
A-------------------------------------------------|
E-------------------------------------------------|

Guitar 1 (cont.)
e-------------------------------------------------|
b-------------------------------------------------|
g-6---------------------------4-------------------|
D-6---------------------------4-------------------|
A-4---------------------------2-------------------|
E-------------------------------------------------|

Guitar 2
e-------------------------------------------------|
b---7-9-10-9-7-5---7-9-10-9-7-5-5--7--9--7--5-----|
g-6--------------6--------------------------------|
D-------------------------------------------------|
A-------------------------------------------------|
E-------------------------------------------------|

Final Chorus
e-------------------------------------------------|
b-------------------------------------------------|
g-1-----------------------2-----------------------|
D-2-----------------------2-----------------------|
A-2-----------------------------------------------|
E-------------------------------------------------|


Guitar 2
e---------7-5-4----------------7-5-4--------------|
b-5---5---------7-5-7-5----5---------7-5-7-5------|
g-------------------------------------------------|
D-------------------------------------------------|
A-------------------------------------------------|
E-------------------------------------------------|

Guitar 1
e-------------------------------------------------|
b-------------------------------------------------|
g-6-----------------------4-------------------1---|
D-6-----------------------4-------------------2---|
A-4-----------------------2-------------------2---|
E-------------------------------------------------|


Guitar 2
e---------7-5-4----------------7-5-4--------------|
b-5---5---------7-5-7-5----5---------7-5-7-5------|
g---------------------------------------------1---|
D---------------------------------------------2---|
A---------------------------------------------2---|
E-------------------------------------------------|
Suggest correction
What's this?
You can suggest a correction to this tab. Community and Mods will review your correction and vote to approve or reject it.
comments
We did not receive enough feedback on this tab! Please rate:
print report bad tab
1 2 3 4 5
guest
You may want to rate the tab now too:
select rating
Please do not post tabs as comments. Select "correction" instead!