Oops, an error
Loading. Please wait.

Into Oblivion Reunion Tab

version 4
version 4

Whole song

Interactive

553 views 1 this week
no commentswrite comment
1 2 3 4 5
3 more votes to show rating
add to favorites
launch autoscroll
font size
0
reset
how to read this tab
guitar tuner
Autoscroll
slow
fast
+/-
esc
set tempo
stop
Help us to improve Ultimate-Guitar.com Take our survey!
×
Funral For A Friend
Into Oblivion
Tales Don't Tell Themselves
2007
Submitted by: paramore_fans@yahoo.com


Key: E

Tuning: Standard EADGBe

Chords used:
E  -  022100
A -   x02220
C#m - x46654
B -   x24442


Intro: E--A--C#m--B (x2)


Violin: 1st enter
e|-0--2--5--4-|
B|------------|
G|------------|
D|------------| x4
A|------------|
E|------------|


Guitar 2: 2nd enter with drums
e|-0-----0-----7-5-4----------|-----4-5--4---|---------4----|
B|----0-----0--------7--5-7-5-|-5-7--------5-|-5--7--7----7-|
G|----------------------------|--------------|--------------|
D|----------------------------|--------------|--------------|
A|----------------------------|--------------|--------------|
E|----------------------------|--------------|--------------|
              x2                     x2


Verse 1:
    E               A
The days I've felt alone
        C#m              B
And the sea it brings me back again
        E
So that I can see my wife
    A
And I can see my child
C#m
Oh, My home it never changes
B
Same old faces, same old faces


Guitar 2: In "I can see my wife..."
e|-----------0-----|-----------7---------------4-----|
B|-------4---------|---4---5-------5---4---5-------5-|
G|---4-----------4-|---------------------------------|
D|-2---2---2---2---|---------------------------------|
A|-----------------|-0---0---0---0---0---0---0---0---|
E|-----------------|---------------------------------|
         x2

e|-------0---4---0-|-----------------|
B|---2-------------|-------4---------|
G|-----------------|---4-------4---4-|
D|-----------------|-----------------|
A|-4---4---4---4---|-2---2---2---2---|
E|-----------------|-----------------|
         x2                 x2


Chorus 1:
C#m  A            E
I   stared into oblivion
    B
And found my home
C#m  A            E
I   stared into oblivion
B
  Into oblivion


(Repeat Intro of the guitar 2 part)


Verse 2:
E              A
Find in me the hope
     C#m            B
That you have never known
E              A
Find in us the faith
    C#m                B
The faith to bring you home


Chorus 2:
C#m  A            E
I   stared into oblivion
    B
And found my home
(Repeat)


C#m  A            E
I   stared into oblivion
    B              C#m           A
And found my own reflection there
   E        B     B
(reflection there)


Bridge: Plucking
E                         A
Home, now that I'm coming home
                C#m
Will you be the same
as when i saw you last
B
Tell me how much time has passed
(Repeat Thrice)


Plucking: x2, at third time no more plucking but distortion instead
e|-----------0-----|-----------7---------------4-----|
B|-------4---------|---4---5-------5---4---5-------5-|
G|---4-----------4-|---------------------------------|
D|-2---2---2---2---|---------------------------------|
A|-----------------|-0---0---0---0---0---0---0---0---|
E|-----------------|---------------------------------|
         x2

e|-------0---4---0-|-----------------|
B|---2-------------|-------4---------|
G|-----------------|---4-------4---4-|
D|-----------------|-----------------|
A|-4---4---4---4---|-2---2---2---2---|
E|-----------------|-----------------|
         x2                 x2


Outro: while doin guitar 2 in intro
E               A
I stared into oblivion
(And found my home)
C#m             B
I stared into oblivion
(And found my home)
E               A
I stared into oblivion
(And found my home)
C#m             B
I stared into oblivion
And found my own
  E(hold)
reflection there
Suggest correction
Give kudos to tab author, rate the tab!
1 2 3 4 5
comments
print report bad tab
guest
You may want to rate the tab now too:
select rating
Wanna post a correction for this tab? Suggest correction