Oops, an error
Loading. Please wait.

Juneau Tab

version 1
version 1

Acoustic

Whole song

29,560 views 15 this week
5 commentsread comments
1 2 3 4 5
accurate
x 4
add to favorites
launch autoscroll
font size
0
reset
how to read this tab
guitar tuner
Autoscroll
slow
fast
+/-
esc
set tempo
stop
Help us to improve Ultimate-Guitar.com Take our survey!
×
ARTIST: Funeral For A Friend
TITLE:  Juneau
ALBUM:  Virgin Radio's 'The Edge', February 27th 2004
GENRE:  (Acoustic) Emocore
YEAR:   2004

by LessThanLuke + funeralforafrie

This is an acoustic version of Juneau that Funeral For A Friend played on 'The Edge', a
radio show on Virgin Radio (in the UK). Basically, it's similar to the normal Juneau, but
everything seems to be played a step higher, at least that's what sounded right to me.
There are some changes in this version, which I have highlighted.

Additions will be made as time goes on, within the next couple of weeks it will be finished for sure.
---

Intro - Guitar 1 (Kris)

Eb|---------------------------------------|
Bb|---------------------------------------|
Gb|--12--12--12--12-12--12--10---9--12-/--|
Db|--10--10--10--10-10--10--10--10--12-/--|
Ab|---8---8---8---8/10--12--12--12--10-/--|
Db|---------------------------------------|

Strum each of these eight times, with a muted one at the start. The last one is just a
single strum, and let it ring. You'll get it as soon as you listen to the song.

---

Verse - Guitar 2 (Darren)

Eb|---------------------------------------------------------|
Bb|---------------------------------------------------------|
Gb|--5------------------------------------------------------|
Db|--3-------------/-5-5-5-5-/-9------10------9-------7-----|
Ab|--3-x8-x7-x7-x4-/-5-5-5-5-/-7-x7----7-x7---7-x7---10-x7--|
Db|--3-------------/-5-5-5-5-/-7-------7------7-------7-----|

This riff is played four times, whilst Kris plays the lead riff over the top.

---

Verse - Guitar 1 (Kris)

Eb|------------------------------------------|
Bb|------------------------------------------|
Gb|-----12-10-9---------------12-10-9--------|
Db|--10---------12-10-10---10---------12-10--|
Ab|------------------------------------------|
Db|------------------------------------------|

Eb|------------------------------------|
Bb|------------------------------------|
Gb|--9--9-9--9-9-9-10--10-9--9---------|
Db|----------------------------12--10--|
Ab|------------------------------------|
Db|------------------------------------|

Eb|------------------------------------------|
Bb|------------------------------------------|
Gb|-----12-10-9---------------12-10-9--------|
Db|--10---------12-10-10---10---------12-10--|
Ab|------------------------------------------|
Db|------------------------------------------|

Eb|-----------------------------------------------------------------|
Bb|-----------------------------------------------------------------|
Gb|-----------------------------------------------------------------|
Db|--12/14-14-14--14-14-14-15--15-141414-121212-101010-12121212-10~-|
Ab|-----------------------------------------------------------------|
Db|-----------------------------------------------------------------|

---

Verse 2 - Guitar 1 (Kris)
Suggest correction
comments
print report bad tab
5 comments total. Showing first comments.
0 reply
steve454 10 wrote on April 8 2004, 12:00 am

It probably isn't played a step higher, the guitars mite have been tuned in normal tuning, rather than Eb

0 reply
kungfusansu 30 wrote on December 10 2004, 12:00 am

I was tired of waiting for you to finish this tab so I started looking around and found that the acoustic version is very similar to th regular version. This is the next riff: (I think there is another lead part too, if someone else could plz contibute)

Interlude
If this is what I came for....
E--------------------------------------------------------------------------
B--------------------------------------------------------------------------
G-------5---4p0-----------5---4p0-----------3---4p0-----------5---4p0------
D-----------------5-----------------5-----------------5-----------------5--
A--------------------------------------------------------------------------
D---3-3---3-----3-----3-3---3-----3-----3-3---3-----3-----3-3---3-----3----

E--------------------------------------------------------------------------
B--------------------------------------------------------------------------
G-------5---4p0-----------5---4p0-----------3---4p0-----------5---4p0------
D-----------------5-----------------5-----------------5-----------------5--
A---0-0---0-----0-----0-0---0-----0-----0-0---0-----0-----0-0---0-----0----
D-------------------------------------------------------------------------

E--------------------------------------------------------------------------
B--------------------------------------------------------------------------
G-------5---4p0-----------5---4p0-----------3---4p0-----------5---4p0------
D-----------------5-----------------5-----------------5-----------------5--
A--------------------------------------------------------------------------
D---3-3---3-----3-----3-3---3-----3-----3-3---3-----3-----3-3---3-----3----


E--------------------------------------------------------------------------
B--------------------------------------------------------------------------
G-------5---4p0-----------5---4p0-----------3---4p0-----------5---4p0------
D-----------------5-----------------5-----------------5-----------------5--
A---0-0---0-----0-----0-0---0-----0-----0-0---0-----0-----0-0---0-----0----
D--------------------------------------------------------------------------

After Rest (listen to the song)
Guitar 1
E-----------------------------------------------------
B-----------------------------------------------------
G--------12-------12--------------12-------12---------
D-----10-------10-------10-----10-------10--------10--
A---8--------8--------8------8--------8---------8-----
D-----------------------------------------------------


E-------------------------------------------------------
B--------------------------------------------------------
G--------12--------12----------------12--------12--------
D------9---------9---------9-------9---------9--------9--
A---12--------12--------12------12--------12-------12----
D--------------------------------------------------------


E-----------------------------------------------------
B-----------------------------------------------------
G--------12-------12--------------12-------12---------
D-----10-------10-------10-----10-------10--------10--
A---8--------8--------8------8--------8---------8-----
D-----------------------------------------------------


E--------------------------------------
B--------------------------------------
G--------12--------12------------------
D------9---------9---------9-------9~--
A---12--------12--------12------12-----
D--------------------------------------

Guitar 2
E------15-------15----------15--
B---13----13-------13----13-----
G------------14-------14--------
D-------------------------------
A-------------------------------
D-------------------------------

Play Interlude Again
Then, First Verse chords a couple of times
Wnd with the Intro

0 reply
kungfusansu 30 wrote on December 10 2004, 12:00 am

End*

guest
You may want to rate the tab now too:
select rating
Wanna post a correction for this tab? Suggest correction