Oops, an error
Loading. Please wait.

Lazarus In The Wilderness Tab

version 1
version 1

Whole song

Interactive

361 views 3 this week
no commentswrite comment
1 2 3 4 5
please rate
add to favorites
launch autoscroll
font size
0
reset
how to read this tab
guitar tuner
Autoscroll
slow
fast
+/-
esc
set tempo
stop
Help us to improve Ultimate-Guitar.com Take our survey!
×
Difficulty
Tuning
intermediate
D# G# C# F# A# D#
----------------------------------------------------------------------
                  LAZARUS (IN THE WILDERNESS) - Funeral for a Friend
----------------------------------------------------------------------

Tabbed by: pat

Tuning: Half-Step Down (yes, really.)


--------
GUITAR I 
--------

Intro Riff Guitar I

eb|------------------------------------------------------------------|
Bb|------------------------------------------------------------------|
Gb|------------------------------------------------------------------|
Db|-7/9-----9---7p4--------5---4----7/9-----9---7p4-------5-5-4------|
Ab|-5/7-----7-------5--------5---5--5/7-----7-------5-----------5----|
Eb|-----0-0---0-------7-5---------------0-0---0-------7-5------------|
        . .   .              .   .      . .   .

eb|------------------------------------------------------------------|
Bb|------------------------------------------------------------------|
Gb|------------------------------------------------------------------|
Db|-7/9-----9---7p4--------5---4------4---4---5---4---4---4-4-2------|
Ab|-5/7-----7-------5--------5---5--3---3---3------------------------|
Eb|-----0-0---0-------7-5----------------------3---3---3--------0----|
        . .   .              .   .                              .

Verse Riff Guitar I

eb|------------------------------------------------------------------|
Bb|------------------------------------------------------------------|
Gb|------------------------------------------------------------------|
Db|-2---------4---------4-5~--2---------4---------5-5-4--------------|
Ab|-2-----------5-7p5---------2-----------5-7p5---------5------------|
Eb|-0-0-0-0-0---------7-------0-0-0-0-0---------7--------------------|
      . . . .                   . . . .

eb|------------------------------------------------------------------|
Bb|------------------------------------------------------------------|
Gb|-------------------------------------5-7-5-7/9--------------------|
Db|-2---------4---------4-5~--2---------x-x-x-x/x--------------------|
Ab|-2-----------5-7p5---------2---------3-5-3-5/7--------------------|
Eb|-0-0-0-0-0---------7-------0-0-0-0-0------------------------------|
      . . . .                   . . . .

eb|------------------------------------------------------------------|
Bb|------------------------------------------------------------------|
Gb|------------------------------------------------------------------|
Db|-2---------4---------4-5~--2---------4---------5-5-4--------------|
Ab|-2-----------5-7p5---------2-----------5-7p5---------5------------|
Eb|-0-0-0-0-0---------7-------0-0-0-0-0---------7--------------------|
      . . . .                   . . . .

eb|------------------------------------------------------------------|
Bb|------------------------------------------------------------------|
Gb|-------------------------------------7-7-9\5----------------------|
Db|-2---------4---------4-5~--2---------x-x-x\x----------------------|
Ab|-2-----------5-7p5---------2---------5-5-7\3----------------------|
Eb|-0-0-0-0-0---------7-------0-0-0-0-0------------------------------|
      . . . .                   . . . .

Chorus Guitar I

eb|------------------------------------------------------------------|
Bb|------------------------------------------------------------------|
Gb|---------------4-2-4/6--------------------------------------------|
Db|-555555-222222-2-0-2/4--------------------------------------------|
Ab|-333333-000000---------2-2-x-2-x-2-2-x-2-x-2-2-x-5-5--------------|
Eb|-----------------------0-0-x-0-x-0-0-x-0-x-0-0-x-2-3--------------|
      . . . .                   . . . .

Break Guitar I

eb|------------------------------------------------------------------|
Bb|------------------------------------------------------------------|
Gb|------------------------------------------------------------------|
Db|-9-99-9-9-9-9-99-x-9-99-9-9-9-9-99-x------------------------------|
Ab|-7-77-7-7-7-7-77-x-7-77-7-7-7-7-77-x------------------------------|
Eb|------------------------------------------------------------------|

Interlude Guitar I

eb|------------------------------------------------------------------|
Bb|------------------------------------------------------------------|
Gb|------------------------------------------------------------------|
Db|-9-99-9-9-9-9-99-x-7-77-7-7-7-7-77-x-5-55-5-5-5-5-55-x------------|
Ab|-7-77-7-7-7-7-77-x-5-55-5-5-5-5-55-x-3-33-3-3-3-3-33-x------------|
Eb|------------------------------------------------------------------|

eb|------------------------------------------------------------------|
Bb|------------------------------------------------------------------|
Gb|------------------------------------------------------------------|
Db|-4-44-4-4-4-4-44-x-4/5--------------------------------------------|
Ab|-2-22-2-2-2-2-22-x-2/3--------------------------------------------|
Eb|------------------------------------------------------------------|

---------
GUITAR II 
---------

Intro Guitar II

eb|------------------------------------------------------------------|
Bb|-17b-17b17b17b-17b-----17b-17b17b17b-17b-----17b-17b17b17b-17b----|
Gb|-19b-19b19b19b-19b-19~-19b-19b19b19b-19b-19~-19b-19b19b19b-19b-19~|
Db|------------------------------------------------------------------|
Ab|------------------------------------------------------------------|
Eb|------------------------------------------------------------------|


eb|------------------------------------------------------------------|
Bb|-20---20---20---20------------------------------------------------|
Gb|----19---19---19---19---------------------------------------------|
Db|------------------------------------------------------------------|
Ab|------------------------------------------------------------------|
Eb|------------------------------------------------------------------|

Verse Riff Guitar II 
(same as Guitar I)

Chorus Guitar II

eb|------------------------------------------------------------------|
Bb|------------------------------------------------------------------|
Gb|------17-16-14----------------17-16-14----------------------------|
Db|--17~---------17-16-14-----------------17-16-14---14~--16b17-14~--|
Ab|-----------------------17-14~-------------------17----------------|
Eb|------------------------------------------------------------------|

eb|------------------------------------------------------------------|
Bb|------------------------------------------------------------------|
Gb|-----------------------16----17-----------------------------------|
Db|-16b17-14~--16b17-14~-----14---14---------------------------------|
Ab|------------------------------------------------------------------|
Eb|------------------------------------------------------------------|


Break Guitar II

eb|------------------------------------------------------------------|
Bb|------------------------------------------------------------------|
Gb|-9-99-9-9-9-9-99-x-9-99-9-9-9-9-99-x------------------------------|
Db|-x-xx-x-x-x-x-xx-x-x-xx-x-x-x-x-xx-x------------------------------|
Ab|-7-77-7-7-7-7-77-x-7-77-7-7-7-7-77-x------------------------------|
Eb|------------------------------------------------------------------|

Interlude Guitar II

eb|------------------------------------------------------------------|
Bb|------------------------------------------------------------------|
Gb|-9-99-9-9-9-9-99-x-9-99-9-9-9-9-99-x-9-99-9-9-9-9-99-x------------|
Db|-x-xx-x-x-x-x-xx-x-x-xx-x-x-x-x-xx-x-x-xx-x-x-x-x-xx-x------------|
Ab|-7-77-7-7-7-7-77-x-7-77-7-7-7-7-77-x-7-77-7-7-7-7-77-x------------|
Eb|------------------------------------------------------------------|

eb|------------------------------------------------------------------|
Bb|------------------------------------------------------------------|
Gb|-9-99-9-9-9-9-99-x-9-9--------------------------------------------|
Db|-x-xx-x-x-x-x-xx-x-x-x--------------------------------------------|
Ab|-7-77-7-7-7-7-77-x-7-7--------------------------------------------|
Eb|------------------------------------------------------------------|


eb|------------------------------------------------------------------|
Bb|------------------------------------------------------------------|
Gb|-9-99-9-9-9-9-99-x-1111111111111111x-12-1212-12-12-12-12-1212-x---|
Db|-x-xx-x-x-x-x-xx-x-x-xx-x-x-x-x-xx-x-x--xx---x--x--x--x--xx---x---|
Ab|-7-77-7-7-7-7-77-x-9-99-9-9-9-9-99-x-10-1010-10-10-10-10-1010-x---|
Eb|------------------------------------------------------------------|

eb|------------------------------------------------------------------|
Bb|------------------------------------------------------------------|
Gb|-161616161616161616116--------------------------------------------|
Db|-xxxxxxxxxxxxxxxxxxxxx--------------------------------------------|
Ab|-141414141414141414141--------------------------------------------|
Eb|------------------------------------------------------------------|

Intro "Solo" again


************************************

Intro Riff/Solo  1x
Verse Riff       1x
Chorus           2x
Verse Riff       1x
Chorus           2x
Break            1x
Interlude        2x
Intro Riff/Solo  1x

************************************

| /   slide up
| \   slide down
| h   hammer-on
| p   pull-off
| ~   vibrato
| +   harmonic
| x   Mute note
| b   Bend
| pb  Pre-bend
| br  Bend release
| pbr Pre-bend release


************************************

Have fun playing this awesome Track!
| brb Bend release bend
Suggest correction new What's this?
You can suggest a correction to this tab. Community and Mods will review your correction and vote to approve or reject it.
comments
We did not receive enough feedback on this tab! Please rate:
print report bad tab
1 2 3 4 5
guest
You may want to rate the tab now too:
select rating
Please do not post tabs as comments. Select "correction" instead!