Oops, an error
Loading. Please wait.

Medicated Bass Tab

version 1
version 1

Whole song

Interactive

187 views 1 this week
no commentswrite comment
1 2 3 4 5
please rate
add to favorites
launch autoscroll
font size
0
reset
guitar tuner
Autoscroll
slow
fast
+/-
esc
set tempo
stop
Help us to improve Ultimate-Guitar.com Take our survey!
×
Contributor
Difficulty
novice
Funeral For A Friend
Medicated
Welcome Home Armageddon
Bassist - Richard Boucher
Tabbed - Maxpowweer

Intro - No bass for 0:23
These are ones by the way
(A cheeky pop here) 
G-2h4-------------------------------------------|
D-----------------------------------------------|X 2
A-----11-11-11-11-11-11-------------------------|
E----------------------44-44-44-44-77-77-77-77--|
B-----------------------------------------------|
Try and follow the beat of the bass drum for the verses and
the bridge as well. 

Chorus
G---------------------------------------------|
D---------------------------------------------|X 2      
A-2222222-4444444-----------------------------|
E-----------------2222222------------2(Hold}--|
B-------------------------44444-77777---------|

Second verse, slight variation
(Pop again)
G-1h3--------------------------------------------|
D------------------------------------------------|X 2
A-----11-11-11-11-11-11--------------------------|
E-----------------------44-44-44-44-77-77-77-77--|
B------------------------------------------------|

Chorus
G----------------------------------------|
D----------------------------------------|      
A-2222222-4444444------------------------|
E-----------------2222222----------------|
B-------------------------4444444-77777--|

                        (Elevens & Thirteens)
G-------------------------111311--111311------------------------|
D-------------------------------11------11-111311---------------|
A-2222222-4444444-9999999------------------------11\2-----------|
E---------------------------------------------------------------|
B---------------------------------------------------------------|
(Not 100% sure on this, if anyone can do better, let me know)   

Guitar solo
G--------------------------------------|
D--------------------------------------|X 2     
A-2222222-4444444----------------------|
E-----------------2222222--------------|
B-------------------------44444-77777--|

Bridge
G------------------------------------------------------|
D------------------------------------------------------|        
A--------------------------------------2----4/9(Hold)--|
E-22-2-22-2---------22-2-22-2--------------------------|X1
B----------44-4-44-4---------44-4-44-4-----------------|

Final chorus
G------------------------------------------|
D------------------------------------------|
A-2222222----------------------------------|
E---------9999999--------------------------|X1
B-----------------7777777-4444444-777777---|

Outro (Same as chorus but a faster tempo)
G------------------------------------------------|
D------------------------------------------------|X2
A-2222222-4444444--------------------------------|
E-----------------2222222---------------2(Hold}--|
B-------------------------4444444-777777---------|

Have fun. 
Please rate and leave feedback!
Suggest correction new What's this?
You can suggest a correction to this tab. Community and Mods will review your correction and vote to approve or reject it.
comments
We did not receive enough feedback on this tab! Please rate:
print report bad tab
1 2 3 4 5
guest
You may want to rate the tab now too:
select rating
Please do not post tabs as comments. Select "correction" instead!