Oops, an error
Loading. Please wait.

Medicated Tab

version 1
version 1

Whole song

Interactive

829 views 3 this week
2 commentsread comments
1 2 3 4 5
please rate
add to favorites
launch autoscroll
font size
0
reset
how to read this tab
guitar tuner
Autoscroll
slow
fast
+/-
esc
set tempo
stop
Help us to improve Ultimate-Guitar.com Take our survey!
×
Author
Difficulty
Tuning
intermediate
C# G# C# F# A# D#
Funeral for a Friend
Medicated
Welcome Home Armageddon 2011

C#G#C#F#A#D#
GTR1
|------------0---------------------0----------|
|-0---------------------0---------------------|
|------11---------11---------11---------11----|
|---12----12---12----12---12----12---12----12-|
|---------------------------------------------|
|---------------------------------------------|

|-------------0----------------------0-----------|
|-12---------------12----12----------------------|
|-------11---------------------11---------11-----|
|----12----12---12----12----12----12---12----12/-|
|------------------------------------------------|
|------------------------------------------------|


|---------------------------------|-------------------------------------|
|-7-------8---7---7-------8---7---|-----7---8---7-------7---8---7-------|
|-----0---------------0-----------|-5---------------5---------------5---|
|---7---7---7---7---7---7---7---7-|---7---7---7---7---7---7---7---7---7-|
|---------------------------------|-------------------------------------|
|---------------------------------|-------------------------------------|

GTR2 - Enters
|---------0---------------0-------|---------------------------------|
|---------------------------------|---------5--------------5--------|
|-4-----------4---4-----------4---|-4-----------4--4-----------4----|
|-----4---------------4-----------|-----4--------------4------------|
|---5---5---5---5---5---5---5---5-|---5---5---5---5--5---5---5---5/-|
|---------------------------------|---------------------------------|

|---------------------------------|-----2---3---2-------2---3---2---|
|---------------------------------|---------------------------------|
|---------------------------------|---------------------------------|
|-----4---5---4-------4---5---4---|-----4---5---4-------4---5---4---|
|-0-0---0---0---0-0-0---0---0---0-|-3---------------3---------------|
|---------------------------------|---3---3---3---3---3---3---3---3-|

Chorus
Both
|----------------------|
|-9----8----7-----5----|
|-9----7----7-----4----|
|-9-x8-7-x8-7-x14-5-x2-|
|-7----9----5-----3----|
|------7---------------|

Pre Chorus
GTR1
|-----7-------7-------7-------7---|
|---8---8---8---8---8---8---8---8-|
|-9-------9-------9-------9-------|
|---------------------------------|
|---------------------------------|
|---------------------------------|

Repeat Verse
Repeat Chorus
Chorus Lead Sweep
|-14p10---------------------------------10-14p10-|
|-------12---------------------------12----------|
|----------11-9/11-12p11----------11-------------|
|------------------------12----12----------------|
|---------------------------14-------------------|
|------------------------------------------------|

|-14p10---------------------------------10-14p10-|
|-------12---------------------------12----------|
|----------11-9/11-12p11----------11-------------|
|------------------------12----12----------------|
|---------------------------14-------------------|
|------------------------------------------------|


|-14/17-14----------14-15-14-------------------------|
|----------15----15----------15-------15-------------|
|-------------14----------------14-12----12-11-12-11-|
|----------------------------------------------------|
|----------------------------------------------------|
|----------------------------------------------------|

|-------------------------------------10-14-10----|
|-12-10-------10-------------------12----------12-|
|-------12-11----12-11----------11----------------|
|----------------------12----12-------------------|
|-------------------------14----------------------|
|-------------------------------------------------|

Bridge
GTR1
|-----5-------5-------5-------5-------7-------7-------7-------7---|
|---8---8---8---8---8---8---8---8---8---8---8---8---8---8---8---8-|
|-7-------7-------7-------7-------9-------9-------9-------9-------|
|-----------------------------------------------------------------|
|-----------------------------------------------------------------|
|-----------------------------------------------------------------|

GTR2
|-----------------------------------------------------------------|
|-------------------------------------0-------0-------0-------0---|
|-----2-------2-------2-------2-----0---0---0---0---0---0---0---0-|
|---5---5---5---5---5---5---5---5-2-------2-------2-------2-------|
|-5-------5-------5-------5---------------------------------------|
|-----------------------------------------------------------------|

Repeat Chorus
Suggest correction
Give kudos to tab author, rate the tab!
1 2 3 4 5
comments
print report bad tab
2 comments total.
0 reply
Mario57 227 wrote on October 23 2011, 11:25 am

everything is prefect besides the chorus which is completly wrong. good job ;)

0 reply
$hab 687 wrote on November 30 2011, 07:18 pm

Good job my arse, he just transcribed my guitar pro tab. None of this is his own tabbing.

guest
You may want to rate the tab now too:
select rating
Wanna post a correction for this tab? Suggest correction