Oops, an error
Loading. Please wait.

Medicated Bass Tab

version 2
version 2

Whole song

Interactive

114 views 1 this week
1 commentread comment
1 2 3 4 5
2 more votes to show rating
add to favorites
launch autoscroll
font size
0
reset
guitar tuner
Autoscroll
slow
fast
+/-
esc
set tempo
stop
Help us to improve Ultimate-Guitar.com Take our survey!
×
Author
Difficulty
Tuning
novice
C# G# C# F# A# D#
Funeral For A Friend
Medicated
Welcome Home Armageddon
Drop Db tuning.


Most of the credit for this tab goes to Maxpowweer as I used his tab and 
transposed it to 4 string bass (with a few minor changes)

Please rate and if there are any mistakes comment. Cheers.


Intro - No bass for 0:23
(pop this bit)
Gb-2h4-------------------------------------------|
Db-----------------------------------------------|X 2
Ab-----22-22-22-22-22-22-00-00-00-00-33-33-33-33-|
Db-----------------------------------------------|

Chorus
Gb---------------------------------------------|
Db---------------------------------------------|X 2	
Ab-3333333-5555555-----------------------------|
Db-----------------5555555-22222-555555(Hold}--|


Second verse
(Pop again)
Gb-2h4--------------------------------------------|
Db------------------------------------------------|X 2
Ab-----22-22-22-22-22-22-00-00-00-00-33-33-33-33--|
Db------------------------------------------------|

Chorus
Gb---------------------------------------|
Db---------------------------------------|	
Ab-3333333-5555555-----------------------|
Db-----------------5555555-22222-555555--|

		        (Twelves & Fourteens)
Gb-------------------------121412--121412------------------------|
Db-----------------5555555-------12------12-121412---------------|
Ab-3333333-5555555--------------------------------12\3-----------|
Db---------------------------------------------------------------|
	

Guitar solo
Gb---------------------------------------|
Db---------------------------------------|X 2	
Ab-3333333-5555555-----------------------|
Db-----------------5555555-22222-555555--|

Bridge
Gb------------------------------------------------------|
Db------------------------------------------------------|	
Ab--------------------------------------3----5/10(Hold)-|
Db-55-5-55-522-2-22-255-5-55-522-2-22-2-----------------|X1


Final chorus
Gb---------------------------------------|
Db---------------------------------------|X 2	
Ab-3333333-5555555-----------------------|
Db-----------------5555555-22222-555555--|

Outro (Same as chorus but a faster tempo)
Gb-----------------------------------------------|
Db-----------------------------------------------|X 2	
Ab-3333333-5555555----------------------3(Hold)--|
Db-----------------5555555-22222-555555----------|
Suggest correction
Give kudos to tab author, rate the tab!
1 2 3 4 5
comments
print report bad tab
1 comment total.
0 reply
maxpowweer 618 Dec 09, 2011 09:57 PM

Thanks again for the credit, itlet me rate this one lol :)
5/5

guest
You may want to rate the tab now too:
select rating
Wanna post a correction for this tab? Suggest correction