Oops, an error
Loading. Please wait.

Novella bass

version 1
version 1

Whole song

Interactive

697 views 3 this week
1 commentread comment
1 2 3 4 5
2 more votes to show rating
add to favorites
×
Save as Personal and add changes to this tab that will be seen only by you. Learn more ›
×
You can save this tab as Personal to edit and correct it or add notes. All changes will be seen only by you. Learn more »
launch autoscroll
font size
0
reset
guitar tuner
edit
Autoscroll
slow
fast
+/-
esc
set tempo
stop
Author
Song - Novella
Artist - Funeral for a Friend
Album - Casually Dressed and Deep in Conversation
Tabbed by - Daniel Cummins - dan_the_man_no1@hotmail.com

Verse -
Gb|-----------------------------------------------------------------------------|
Db|-----------------------------------------------------------------------------|
Ab|-----------------------------------------------------------------------------|
Db|-4440-4440-440-121212121212121212121212121212\4440-4440-440-0000000000000000-|

Gb|---------------------------------------------------------------------------------------------|
Db|---------------------------------------------------------------------------------------------|
Ab|---------------------------------------------------------------------------------------------|
Db|-4440-4440-440-121212121212121212121212121212\4440-4440-440-00000000000000000000000000000000-|

Gb|----------------------------------|
Db|----------------------------------|
Ab|----------------------------------|
Db|-00000000000000000000000000000000-|

(GUITAR)

Chorus -
Gb|-------------------------------------------------------------------------------------|
Db|-------------------------------------------------------------------------------------|
Ab|---------------------------------------------2-22222---------------------------------|
Db|-4\-0-0-0-4-4444-0-0-0-4-444---0-0-0-0-00000--------4-44444-0-0-0-4-4444-0-0-0-4-4444|

Verse -
Gb|-----------------------------------------------------------------------------|
Db|-----------------------------------------------------------------------------|
Ab|-----------------------------------------------------------------------------|
Db|-4440-4440-440-121212121212121212121212121212\4440-4440-440-0000000000000000-|

Gb|-----------------------------------------------------------------------------|
Db|-----------------------------------------------------------------------------|
Ab|-----------------------------------------------------------------------------|
Db|-4440-4440-440-121212121212121212121212121212\4440-4440-440-0000000000000000-|

Gb|-----------------------------------|
Db|-----------------------------------|
Ab|-----------------------------------|
Db|-0000000000000000000----000----000-|

Chorus -
Gb|-------------------------------------------------------|
Db|-------------------------------------------------------|
Ab|---------------2-22222---------------------------------|
Db|-0-0-0-0-00000--------4-44444-0-0-0-4-4444-0-0-0-4-4444|(x3)

Gb|---------------------------------------------------------------|
Db|---------------------------------------------------------------|
Ab|---------------2-22222-----------------------------------------|
Db|-0-0-0-0-00000--------4-44444-0-0-0-4-4444-0-0-0-4-4444-0~~~~~-|

Bridge -
Gb|------------------------------------------------------------------|
Db|-4444444444444444444444444444444400000000000000000000000000000000-|
Ab|------------------------------------------------------------------|
Db|------------------------------------------------------------------|(x4)

Gb|-------------------------------------------------------------------------|
Db|-4-44444-6-66-7-77-4-44444-7-77-6-66-0-00000-2-22-2-22-0-00000-2-22-2-22-|
Ab|-------------------------------------------------------------------------|
Db|-------------------------------------------------------------------------|(x4)

Gb|---------------------------------------------------|
Db|---------------------------------------------------|
Ab|---------------------------------------------------|
Db|-4~~~~~~~6~~~7~~~4~~~~~~~7~~~6~~~0~~~~~~~~~~~~~~~~-|

Gb|------------------------------------------------------------------|
Db|------------------------------------------------------------------|
Ab|------------------------------------------------------------------|
Db|-4444444444444444444444444444444400000000000000000000000000000000-|(x4)

Outro - 
Gb|------------------------------------------------------------------|
Db|-4444444444444444444444444444444400000000000000000000000000000000-|
Ab|------------------------------------------------------------------|
Db|------------------------------------------------------------------|(x2)

Gb|-------------------------------------------------------------------------|
Db|-4-44444-6-66-7-77-4-44444-7-77-6-66-0-00000-2-22-2-22-0-00000-2-22-2-22-|
Ab|-------------------------------------------------------------------------|
Db|-------------------------------------------------------------------------|

Gb|--------------------------------------------------------------------------------|
Db|-4-44444-6-66-7-77-4-44444-7-77-6-66-0-00000-2-22-2-22-0-00000-2-22-2-22-4~~~~~-|
Ab|--------------------------------------------------------------------------------|
Db|--------------------------------------------------------------------------------|

And thats the whole deal (or song).
the outro might be down the octave but i didnt tab it that way. if you do want to play
it down the octave all you do is just play what it says on what would usually be your E
string. Please rate and comment. Dan.

            
            
Suggest correction
Creating personal tab
Creating personal tab
You can edit any tab online and save it as your Personal.

You can edit, replace or remove any tab part or add personal notes – all changes will be seen only by you.

Personal tabs can be accessed anytime from any device, even offline.
Learn more »
Give kudos to tab author, rate the tab!
1 2 3 4 5
comments
print report bad tab
1 comment total.
0 reply
The4given1 31 Nov 03, 2008 09:01 AM

pretty amazing tab man , how the hell did you do it , must of took a while lol

guest
You may want to rate the tab now too:
select rating
Wanna post a correction for this tab? Suggest correction