Oops, an error
Loading. Please wait.
We have an official Roses For The Dead tab made by UG professional guitarists. Check out the tab »
×
8,121 views 30 this week
2 commentsread comments
1 2 3 4 5
x 5
add to favorites
×
Save as Personal and add changes to this tab that will be seen only by you. Learn more ›
×
You can save this tab as Personal to edit and correct it or add notes. All changes will be seen only by you. Learn more »
launch autoscroll
font size
0
reset
how to read this tab
guitar tuner
edit
Autoscroll
slow
fast
+/-
esc
set tempo
stop
Author
Gtr I (Db Ab Db Gb Bb Eb) - 'Untitled'
Gtr II (Db Ab Db Gb Bb Eb) - 'Untitled'


   Intro
    Q=105
    N.C.
   4/4
    Gtr I
    T T  T T T  T T T  T T T  T T T  T
    S S  S S S  S S S  S S S  S S S  S  S
||----------------------------------------|
||o--------------------------12-----------|
||------12-----11-------------------11h12-|
||----9------9------9-12---9------9-------|
||o-7------7------7------7------7---------|
||----------------------------------------|


  T T  T T T  T T T  T T T  T T T  T
  S S  S S S  S S S  S S S  S S S  S  S
|---------------------------------------|
|--------------------------12-----------|
|-----12-----11-------------------11h12-|
|---9------9------9-12---9------9-------|
|-7------7------7------7------7---------|
|---------------------------------------|


  T T  T T T  T T T  T T T  T T T  T
  S S  S S S  S S S  S S S  S S S  S  S
|---------------------------------------|
|--------------------------12-----------|
|-----12-----11---------------4---11h12-|
|---5------5------5-12---5--------------|
|-3------3------3------3--------3-------|
|---------------------------------------|


  T T  T T T  T T T  T T T  T T T  T
  S S  S S S  S S S  S S S  S S S  S  S
|----------------------------------------||
|--------------------------12-----------o||
|-----12-----11-------------------11h12--||
|---7------7------7-12---7------7--------||
|-5------5------5------5------5---------o||
|----------------------------------------||


   Pre-Verse
    E5
    Gtr I
    T T  T T T  T T T  T T T  T T T  T
    S S  S S S  S S S  S S S  S S S  S  S
||----------------------------------------|
||o--------------------------12-----------|
||------12-----11-------------------11h12-|
||----9------9------9-12---9------9-------|
||o-7------7------7------7------7---------|
||----------------------------------------|
|
|   Gtr II
|   W
||----------------------------------------|
||o---------------------------------------|
||----------------------------------------|
||--2-------------------------------------|
||o-2-------------------------------------|
||--2-------------------------------------|


  T T  T T T  T T T  T T T  T T T  T
  S S  S S S  S S S  S S S  S S S  S  S
|----------------------------------------|
|--------------------------12------------|
|-----12-----11-------------------11h12--|
|---9------9------9-12---9------9--------|
|-7------7------7------7------7----------|
|----------------------------------------|
|
| W
|----------------------------------------|
|----------------------------------------|
|----------------------------------------|
|-2--------------------------------------|
|-2--------------------------------------|
|-2--------------------------------------|


  C5
  T T  T T T  T T T  T T T  T T T  T
  S S  S S S  S S S  S S S  S S S  S  S
|---------------------------------------|
|--------------------------12-----------|
|-----12-----11---------------4---11h12-|
|---5------5------5-12---5--------------|
|-3------3------3------3--------3-------|
|---------------------------------------|
|
| W
|---------------------------------------|
|---------------------------------------|
|-5-------------------------------------|
|-5-------------------------------------|
|-3-------------------------------------|
|---------------------------------------|


  D5
  T T  T T T  T T T  T T T  T T T  T
  S S  S S S  S S S  S S S  S S S  S  S
|----------------------------------------||
|--------------------------12-----------o||
|-----12-----11-------------------11h12--||
|---7------7------7-12---7------7--------||
|-5------5------5------5------5---------o||
|----------------------------------------||
|
| W
|----------------------------------------||
|---------------------------------------o||
|-7--------------------------------------||
|-7--------------------------------------||
|-5-------------------------------------o||
|----------------------------------------||


   Verse
    E5
     S  S  S  S  S  S  S  S  S  S  S  S  S  S  S  S
||--------------------------------------------------|
||o-------------------------------------------------|
||--12-12-12-12-12-12-11-11-11-11-11-11-11-11-11-11-|
||---x--x--x--x--x--x--x--x--x--x--x--x--x--x--x--x-|
||o-10-10-10-10-10-10--9--9--9--9--9--9--9--9--9--9-|
||--------------------------------------------------|
|
|    S  S  S  S  S  S  S  S  S  S  S  S  S  S  S  S
||--------------------------------------------------|
||o-------------------------------------------------|
||--------------------------------------------------|
||---2--2--2--2--2--2--2--2--2--2--2--2--2--2--2--2-|
||o--2--2--2--2--2--2--2--2--2--2--2--2--2--2--2--2-|
||---2--2--2--2--2--2--2--2--2--2--2--2--2--2--2--2-|


   S  S  S  S  S  S  S  S  S  S  S  S  S  S  S  S
|--------------------------------------------------|
|--------------------------------------------------|
|-12-12-12-12-12-12-14-14-14-14-14-14-16-16-16-16--|
|--x--x--x--x--x--x--x--x--x--x--x--x--x--x--x--x--|
|-10-10-10-10-10-10-12-12-12-12-12-12-14-14-14-14--|
|--------------------------------------------------|
|
|  S  S  S  S  S  S  S  S  S  S  S  S  S  S  S  S
|--------------------------------------------------|
|--------------------------------------------------|
|--------------------------------------------------|
|--2--2--2--2--2--2--2--2--2--2--2--2--2--2--2--2--|
|--2--2--2--2--2--2--2--2--2--2--2--2--2--2--2--2--|
|--2--2--2--2--2--2--2--2--2--2--2--2--2--2--2--2--|


  C5
    S  S  S  S  S  S  S  S  S  S  S  S  S  S  S  S
|--------------------------------------------------|
|--------------------------------------------------|
|-/19-19-19-19-19-19-17-17-17-17-17-17-17-17-17-17-|
|---x--x--x--x--x--x--x--x--x--x--x--x--x--x--x--x-|
|-/17-17-17-17-17-17-15-15-15-15-15-15-15-15-15-15-|
|--------------------------------------------------|
|
|   S  S  S  S  S  S  S  S  S  S  S  S  S  S  S  S
|--------------------------------------------------|
|--------------------------------------------------|
|---5--5--5--5--5--5--5--5--5--5--5--5--5--5--5--5-|
|---5--5--5--5--5--5--5--5--5--5--5--5--5--5--5--5-|
|---3--3--3--3--3--3--3--3--3--3--3--3--3--3--3--3-|
|--------------------------------------------------|


  D5                                                  C/A
   S  S  S  S  S  S  S  S  S  S  S  S  S  S  S  S      S  S  S S  S  S  S S  S  S  S S  S  S  S S
|--------------------------------------------------||---------------------------------------------||
|-------------------------------------------------o||---------------------------------------------||
|-16-16-16-16-16-16-14-14-14-14-14-14-14-14-14-14--||--9--9--9----9--9--9----9--9--9----9--9--9---||
|--x--x--x--x--x--x--x--x--x--x--x--x--x--x--x--x--||-10-10-10---10-10-10---10-10-10---10-10-10---||
|-14-14-14-14-14-14-12-12-12-12-12-12-12-12-12-12-o||-12-12-12---12-12-12---12-12-12---12-12-12---||
|--------------------------------------------------||---------------------------------------------||
|
|  S  S  S  S  S  S  S  S  S  S  S  S  S  S  S  S      W
|--------------------------------------------------||---------------------------------------------||
|-------------------------------------------------o||---------------------------------------------||
|--7--7--7--7--7--7--7--7--7--7--7--7--7--7--7--7--||---------------------------------------------||
|--7--7--7--7--7--7--7--7--7--7--7--7--7--7--7--7--||---------------------------------------------||
|--5--5--5--5--5--5--5--5--5--5--5--5--5--5--5--5-o||---------------------------------------------||
|--------------------------------------------------||---------------------------------------------||


   Pre-Chorus
    $
    C/A
     S  S  S S  S  S  S S  S  S  S S  S  S  S S
||----------------------------------------------|
||o---------------------------------------------|
||---9--9--9----9--9--9----9--9--9----9--9--9---|
||--10-10-10---10-10-10---10-10-10---10-10-10---|
||o-12-12-12---12-12-12---12-12-12---12-12-12---|
||----------------------------------------------|
|
|    S  S  S S  S  S  S S  S  S  S S  S  S  S S
||----------------------------------------------|
||o---------------------------------------------|
||---5--5--5----5--5--5----5--5--5----5--5--5---|
||---7--7--7----7--7--7----7--7--7----7--7--7---|
||o--7--7--7----7--7--7----7--7--7----7--7--7---|
||----------------------------------------------|


  C/F
   S  S  S S  S  S  S S  S  S  S S  S  S  S S
|----------------------------------------------|
|----------------------------------------------|
|--9--9--9----9--9--9----9--9--9----9--9--9----|
|-10-10-10---10-10-10---10-10-10---10-10-10----|
|--8--8--8----8--8--8----8--8--8----8--8--8----|
|----------------------------------------------|
|
|  S  S  S S  S  S  S S  S  S  S S  S  S  S S
|----------------------------------------------|
|----------------------------------------------|
|----------------------------------------------|
|--3--3--3----3--3--3----3--3--3----3--3--3----|
|--3--3--3----3--3--3----3--3--3----3--3--3----|
|--3--3--3----3--3--3----3--3--3----3--3--3----|


  C/G
   S  S  S S  S  S  S S  S  S  S S  S  S  S S
|---------------------------------------------|
|---------------------------------------------|
|--9--9--9----9--9--9----9--9--9----9--9--9---|
|-10-10-10---10-10-10---10-10-10---10-10-10---|
|-10-10-10---10-10-10---10-10-10---10-10-10---|
|---------------------------------------------|
|
|  S  S  S S  S  S  S S  S  S  S S  S  S  S S
|---------------------------------------------|
|---------------------------------------------|
|---------------------------------------------|
|--5--5--5----5--5--5----5--5--5----5--5--5---|
|--5--5--5----5--5--5----5--5--5----5--5--5---|
|--5--5--5----5--5--5----5--5--5----5--5--5---|


   S  S  S S  S  S  S S  S  S  S S  S  S  S S
|----------------------------------------------||
|---------------------------------------------o||
|--9--9--9----9--9--9----9--9--9----9--9--9----||
|-10-10-10---10-10-10---10-10-10---10-10-10----||
|-10-10-10---10-10-10---10-10-10---10-10-10---o||
|----------------------------------------------||
|
|  S  S  S S  S  S  S S  S  S  S S  S  S  S S
|----------------------------------------------||
|---------------------------------------------o||
|----------------------------------------------||
|--5--5--5----5--5--5----5--5--5----5--5--5----||
|--5--5--5----5--5--5----5--5--5----5--5--5---o||
|--5--5--5----5--5--5----5--5--5----5--5--5----||


   Chorus
    Am/E
      S  S  S  S  S  S  S  S  S  S  S  S  S  S  S  S
||---------------------------------------------------|
||o--------------------------------------------------|
||--/17-17-17-17-17-17-17-17-17-17-17-17-17-17-17-17-|
||----x--x--x--x--x--x--x--x--x--x--x--x--x--x--x--x-|
||o-/15-15-15-15-15-15-15-15-15-15-15-15-15-15-15-15-|
||---------------------------------------------------|
|
|     S  S  S  S  S  S  S  S  S  S  S  S  S  S  S  S
||---------------------------------------------------|
||o--------------------------------------------------|
||----5--5--5--5--5--5--5--5--5--5--5--5--5--5--5--5-|
||----7--7--7--7--7--7--7--7--7--7--7--7--7--7--7--7-|
||o---7--7--7--7--7--7--7--7--7--7--7--7--7--7--7--7-|
||---------------------------------------------------|


  F5
   S  S  S  S  S  S  S  S  S  S  S  S  S  S  S  S
|--------------------------------------------------|
|--------------------------------------------------|
|-19-19-19-19-19-19-19-19-19-19-19-19-19-19-19-19--|
|--x--x--x--x--x--x--x--x--x--x--x--x--x--x--x--x--|
|-17-17-17-17-17-17-17-17-17-17-17-17-17-17-17-17--|
|--------------------------------------------------|
|
|  S  S  S  S  S  S  S  S  S  S  S  S  S  S  S  S
|--------------------------------------------------|
|--------------------------------------------------|
|--------------------------------------------------|
|--3--3--3--3--3--3--3--3--3--3--3--3--3--3--3--3--|
|--3--3--3--3--3--3--3--3--3--3--3--3--3--3--3--3--|
|--3--3--3--3--3--3--3--3--3--3--3--3--3--3--3--3--|


  G5
   S  S  S  S  S  S  S  S  S  S  S  S  S  S  S  S
|-------------------------------------------------|
|-------------------------------------------------|
|-16-16-16-16-16-16-16-16-16-16-16-16-16-16-16-16-|
|--x--x--x--x--x--x--x--x--x--x--x--x--x--x--x--x-|
|-14-14-14-14-14-14-14-14-14-14-14-14-14-14-14-14-|
|-------------------------------------------------|
|
|  S  S  S  S  S  S  S  S  S  S  S  S  S  S  S  S
|-------------------------------------------------|
|-------------------------------------------------|
|-------------------------------------------------|
|--5--5--5--5--5--5--5--5--5--5--5--5--5--5--5--5-|
|--5--5--5--5--5--5--5--5--5--5--5--5--5--5--5--5-|
|--5--5--5--5--5--5--5--5--5--5--5--5--5--5--5--5-|


                                         To Coda
   S  S  S  S  S  S  S  S   S  S  S  S  S  S  S  S
|---------------------------------------------------||
|--------------------------------------------------o||
|-14-14-14-14-14-14-14-14-/16-16-16-16-16-16-16-16--||
|--x--x--x--x--x--x--x--x---x--x--x--x--x--x--x--x--||
|-12-12-12-12-12-12-12-12-/14-14-14-14-14-14-14-14-o||
|---------------------------------------------------||
|
|  S  S  S  S  S  S  S  S   S  S  S  S  S  S  S  S
|---------------------------------------------------||
|--------------------------------------------------o||
|---------------------------------------------------||
|--5--5--5--5--5--5--5--5---5--5--5--5--5--5--5--5--||
|--5--5--5--5--5--5--5--5---5--5--5--5--5--5--5--5-o||
|--5--5--5--5--5--5--5--5---5--5--5--5--5--5--5--5--||


 Post-Chorus
  E5                                                N.C.
  >
  W          +W           +W           +W           Wx4
|----------|------------|------------|------------|--------||
|----------|------------|------------|------------|--------||
|----------|------------|------------|------------|--------||
|-2--------|-(2)--------|-(2)--------|-(2)--------|--------||
|-2--------|-(2)--------|-(2)--------|-(2)--------|--------||
|-2--------|-(2)--------|-(2)--------|-(2)--------|--------||
|
| >
| W          +W           +W           +W           Wx4
|----------|------------|------------|------------|--------||
|----------|------------|------------|------------|--------||
|----------|------------|------------|------------|--------||
|-2--------|-(2)--------|-(2)--------|-(2)--------|--------||
|-2--------|-(2)--------|-(2)--------|-(2)--------|--------||
|-2--------|-(2)--------|-(2)--------|-(2)--------|--------||


   Pre-Verse 2
    E5
    T T  T T T  T T T  T T T  T T T  T
    S S  S S S  S S S  S S S  S S S  S  S
||----------------------------------------|
||o--------------------------12-----------|
||------12-----11-------------------11h12-|
||----9------9------9-12---9------9-------|
||o-7------7------7------7------7---------|
||----------------------------------------|
|
|   W
||----------------------------------------|
||o---------------------------------------|
||----------------------------------------|
||--2-------------------------------------|
||o-2-------------------------------------|
||--2-------------------------------------|


  E5
  T T  T T T  T T T  T T T  T T T  T
  S S  S S S  S S S  S S S  S S S  S  S
|----------------------------------------|
|--------------------------12------------|
|-----12-----11-------------------11h12--|
|---9------9------9-12---9------9--------|
|-7------7------7------7------7----------|
|----------------------------------------|
|
| W
|----------------------------------------|
|----------------------------------------|
|----------------------------------------|
|-2--------------------------------------|
|-2--------------------------------------|
|-2--------------------------------------|


  C5
  T T  T T T  T T T  T T T  T T T  T
  S S  S S S  S S S  S S S  S S S  S  S
|---------------------------------------|
|--------------------------12-----------|
|-----12-----11---------------4---11h12-|
|---5------5------5-12---5--------------|
|-3------3------3------3--------3-------|
|---------------------------------------|
|
| W
|---------------------------------------|
|---------------------------------------|
|-5-------------------------------------|
|-5-------------------------------------|
|-3-------------------------------------|
|---------------------------------------|


 1.                                        2.
                                D.S. al Coda
  D5
  T T  T T T  T T T  T T T  T T T  T
  S S  S S S  S S S  S S S  S S S  S  S     W
|----------------------------------------||------||
|--------------------------12-----------o||------||
|-----12-----11-------------------11h12--||------||
|---7------7------7-12---7------7--------||------||
|-5------5------5------5------5---------o||-5----||
|----------------------------------------||------||
|
| W                                         W
|----------------------------------------||------||
|---------------------------------------o||------||
|-7--------------------------------------||-7----||
|-7--------------------------------------||-7----||
|-5-------------------------------------o||-5----||
|----------------------------------------||------||


   Bridge (Half-Time Feel)
    &
    A5                    C5
     E  Q   E  Q   E  E    S  S  Q   E  Q   E  E
||----------------------|------------------------|
||o---------------------|------------------------|
||--17-17--17-17--17-17-|-17s19-19--19-19--19-19-|
||---x--x---x--x---x--x-|--x--x--x---x--x---x--x-|
||o-15-15--15-15--15-15-|-15s17-17--17-17--17-17-|
||----------------------|------------------------|
|
|    E  Q   E  H           E     Q   E  H
||----------------------|------------------------|
||o---------------------|------------------------|
||----------------------|--5-----5---5--5--------|
||---7--7---7--7--------|--5-----5---5--5--------|
||o--7--7---7--7--------|--3-----3---3--3--------|
||---7--7---7--7--------|------------------------|


  G5                    G5
   E  Q   E  Q   E  E    E  Q   E  Q   E  E  3x
|---------------------|----------------------||
|---------------------|---------------------o||
|-16-16--16-16--16-16-|-14-14--14-16--16-16--||
|--x--x---x--x---x--x-|--x--x---x--x---x--x--||
|-14-14--14-14--14-14-|-12-12--12-14--14-14-o||
|---------------------|----------------------||
|
|  E  Q   E  H           E  Q   E  H         3x
|---------------------|----------------------||
|---------------------|---------------------o||
|---------------------|----------------------||
|--5--5---5--5--------|--5--5---5--5---------||
|--5--5---5--5--------|--5--5---5--5--------o||
|--5--5---5--5--------|--5--5---5--5---------||


  A5                        C5
   E  E  E  E  E  E  E  E    E  E  E  E  E  E  E  E
|-------------------------|-------------------------|
|-------------------------|-------------------------|
|-17-17-17-17-17-17-17-17-|-19-19-19s21-21-21s22-22-|
|--x--x--x--x--x--x--x--x-|--x--x--x--x--x--x--x--x-|
|-15-15-15-15-15-15-15-15-|-17-17-17s19-19-19s20-20-|
|-------------------------|-------------------------|
|
|  E  E  E  E  E  E  E  E    E  E  E  E  E  E  E  E
|-------------------------|-------------------------|
|-------------------------|-------------------------|
|-------------------------|--5--5--5--5--5--5--5--5-|
|--7--7--7--7--7--7--7--7-|--5--5--5--5--5--5--5--5-|
|--7--7--7--7--7--7--7--7-|--3--3--3--3--3--3--3--3-|
|--7--7--7--7--7--7--7--7-|-------------------------|


  G5
   E  E  E  E  E  E  E  E    E  E  E  E  E  E  E  E
|-------------------------|-------------------------||
|-------------------------|-------------------------||
|-21-21-21-21-19-19-19-19-|-17-17-17-17-19-19-19-19-||
|--x--x--x--x--x--x--x--x-|--x--x--x--x--x--x--x--x-||
|-19-19-19-19-17-17-17-17-|-15-15-15-15-17-17-17-17-||
|-------------------------|-------------------------||
|
|  E  E  E  E  E  E  E  E    E  E  E  E  E  E  E  E
|-------------------------|-------------------------||
|-------------------------|-------------------------||
|-------------------------|-------------------------||
|--5--5--5--5--5--5--5--5-|--5--5--5--5--5--5--5--5-||
|--5--5--5--5--5--5--5--5-|--5--5--5--5--5--5--5--5-||
|--5--5--5--5--5--5--5--5-|--5--5--5--5--5--5--5--5-||


   Outro
    A5
     S  S  S  S  S  S  S  S  S  S  S  S  S  S  S  S
||--------------------------------------------------|
||o-------------------------------------------------|
||--17-17-17-17-17-17-17-17-17-17-17-17-17-17-17-17-|
||---x--x--x--x--x--x--x--x--x--x--x--x--x--x--x--x-|
||o-15-15-15-15-15-15-15-15-15-15-15-15-15-15-15-15-|
||--------------------------------------------------|
|
|    PM|      PM       PM|      PM    PM---|
|    S  S  S  S  S  S  S  S  S  S  S  S  S  S  S  S
||--------------------------------------------------|
||o-------------------------------------------------|
||--------------------------------------------------|
||--------------------------10----------------------|
||o--------8-----8p=7-------------10-----------8p=7-|
||---7--7-----7--------7--7-----7-----7--7--7-------|


  G5
   S  S  S  S  S  S   S  S  S  S  S  S   S  S  S  S
|----------------------------------------------------|
|----------------------------------------------------|
|-19-19-19-19-19-19-/21-21-21-21-21-21-/22-22-22-22--|
|--x--x--x--x--x--x---x--x--x--x--x--x---x--x--x--x--|
|-17-17-17-17-17-17-/19-19-19-19-19-19-/20-20-20-20--|
|----------------------------------------------------|
|
|  PM|      PM        PM|      PM        PM|
|  S  S  S  S  S  S   S  S  S  S  S  S   S  S  S  S
|----------------------------------------------------|
|----------------------------------------------------|
|----------------------------------------------------|
|----------------------------------------------------|
|--------5-----7p=5---------3-----5p=3---------7p=5--|
|--5--5-----5---------5--5-----5---------5--5--------|


  1.,2.,3.
  F5
    S  S  S  S  S  S  S  S  S  S  S  S  S  S  S  S
|--------------------------------------------------|
|--------------------------------------------------|
|-/24-24-24-24-24-24-22-22-22-22-22-22-22-22-22-22-|
|---x--x--x--x--x--x--x--x--x--x--x--x--x--x--x--x-|
|-/22-22-22-22-22-22-20-20-20-20-20-20-20-20-20-20-|
|--------------------------------------------------|
|
|   PM|      PM       PM|      PM       PM|
|   S  S  S  S  S  S  S  S  S  S  S  S  S  S  S  S
|--------------------------------------------------|
|--------------------------------------------------|
|--------------------------------------------------|
|---------------------------2-----3p=2-------------|
|---------2-----3p=2--------------------------2h=3-|
|---3--3-----3--------3--3-----3--------3--3-------|


    S  S  S  S  S  S   S  S  S  S  S  S  S  S  S  S  4x
|----------------------------------------------------||
|---------------------------------------------------o||
|-\21-21-21-21-21-21-\19-19-19-19-19-19-19-19-19-19--||
|---x--x--x--x--x--x---x--x--x--x--x--x--x--x--x--x--||
|-\19-19-19-19-19-19-\17-17-17-17-17-17-17-17-17-17-o||
|----------------------------------------------------||
|
|   PM|      PM        PM|      PM       PM|
|   S  S  S  S  S  S   S  S  S  S  S  S  S  S  S  S  4x
|----------------------------------------------------||
|---------------------------------------------------o||
|----------------------------------------------------||
|----------------------------2-----3p=2--------------||
|---------2-----3p=2---------------------------2h=3-o||
|---3--3-----3---------3--3-----3--------3--3--------||


  4.
  F5
                                     PM----|
   E.  E.  E  E.  E.  E    E.  E.  E E. E. E
|-----------------------|--------------------*|
|-----------------------|--------------------*|
|-24--24--24-22--22--22-|-21--21--21---------*|
|--x---x---x--x---x---x-|--x---x---x---------*|
|-22--22--22-20--20--20-|-19--19--19-3--3--3-*|
|-----------------------|------------3--3--3-*|
|
|                                    PM----|
|  E.  E.  E  E.  E.  E    E.  E.  E E. E. E
|-----------------------|--------------------*|
|-----------------------|--------------------*|
|-----------------------|--------------------*|
|--3---3---3--3---3---3-|--3---3---3---------*|
|--3---3---3--3---3---3-|--3---3---3-3--3--3-*|
|--3---3---3--3---3---3-|--3---3---3-3--3--3-*|




--------------------------------------------------------------------------------


Duration Legend
---------------
W - whole; H - half; Q - quarter; E - 8th; S - 16th; T - 32nd; X - 64th; a - acciaccatura
+ - note tied to previous; . - note dotted; .. - note double dotted
Uncapitalized letters represent notes that are staccato (1/2 duration)
Irregular groupings are notated above the duration line
Duration letters will always appear directly above the note/fret number it represents the
duration for.  Duration letters with no fret number below them represent rests.  Multi-
bar rests are notated in the form Wxn, where n is the number of bars to rest for.  Low
melody durations appear below the staff

Tablature Legend
----------------
 h   - hammer-on
 p   - pull-off
 b   - bend
 pb  - pre-bend
 r   - bend release (if no number after the r, then release immediately)
 /\  - slide into or out of (from/to "nowhere")
 s   - legato slide
 S   - shift slide
 - natural harmonic
[n]  - artificial harmonic
n(n) - tapped harmonic
 ~   - vibrato
 tr  - trill
 T   - tap
 TP  - trem. picking
 PM  - palm muting
\n/  - tremolo bar dip; n = amount to dip
 \n  - tremolo bar down
 n/  - tremolo bar up
/n\  - tremolo bar inverted dip
 =   - hold bend; also acts as connecting device for hammers/pulls
 <> - volume swell (louder/softer)
 x   - on rhythm slash represents muted slash
 o   - on rhythm slash represents single note slash

Misc Legend
-----------
 |  - bar
||  - double bar
||o - repeat start
o|| - repeat end
*|  - double bar (ending)
 :  - bar (freetime)
 $  - Segno
 &  - Coda
Tempo markers -  = BPM(8/16=s8/s16), where s8 = swing 8ths, s16 = swing 16ths

            
            
Suggest correction
Creating personal tab
Creating personal tab
You can edit any tab online and save it as your Personal.

You can edit, replace or remove any tab part or add personal notes – all changes will be seen only by you.

Personal tabs can be accessed anytime from any device, even offline.
Learn more »
comments
print report bad tab
2 comments total.
0 reply
ibanezeric82 103 May 03, 2008 09:11 PM

perfect. except you forgot the pull-offs in the intro. each time you hit 11 or 12, you pull off to 0 on that string. cept for the slide from 11 to 12, which you got right and a lot of idiots miss.

0 reply
Huffman 10 Jul 02, 2008 06:36 AM

other than wat ibanez dude just mentioned there is no open notes in the whole song so tranpsoing to normal drop d should b easy

guest
You may want to rate the tab now too:
select rating
Wanna post a correction for this tab? Suggest correction