Oops, an error
Loading. Please wait.

Sixteen Tab

version 2
version 2

Whole song

Interactive

398 views 1 this week
no commentswrite comment
1 2 3 4 5
please rate
add to favorites
launch autoscroll
font size
0
reset
how to read this tab
guitar tuner
Autoscroll
slow
fast
+/-
esc
set tempo
stop
Help us to improve Ultimate-Guitar.com Take our survey!
×
Author
Difficulty
Tuning
intermediate
C# G# C# F# A# D#
Funeral For a Friend
Sixteen
Welcome Home Armageddon 2011

C#G#C#F#A#D#

Intro/Verse
GTR1
|----------------------------------------------------------------------------------------|
|----------------------------------------------------------------------------------------|
|-----11------------11-9----9--12-11---------11/-------11-----12-----14----11------------|
|-0-0---x8--------9------12----------12-9-12-----------------------------------9----5----|
|-0-0-9------9-12----------------------------------0-0-9--0-0-10-0-0-12-0--9---9-x5-5-x5-| x3
|-0-0------9---------------------------------------0-0----0-0----0-0----0------9----5----|

GTR2
|-------------------------------------------------------|
|-------------------------------------------------------|
|----------------------7-----9-----11-----7-------------|
|-0-----4----5--------------------------------9----5----|
|-0-x16-4-x6-5-x6--0-0-5-0-0-7-0-0-9--0-0-5---9-x5-5-x5-|
|-0-----4----5-----0-0---0-0---0-0----0-0-----9----5----|

Pre Chorus
GTR1
|----------------|
|----------------|
|-11---14~---12~-|
|---x4-----------|
|-9----12~---10~-|
|----------------|

GTR2
|--------------|
|--------------|
|--------------|
|-4----------5-|
|-4-x4-------5-|
|-4----------5-|

Chorus
GTR1
|-------------------------------------------------------|
|-------------------------------------------------------|
|-12-11--------12-11---------12-11-------14----14----14-|
|-------12-9---------12------------12-12----12----12----|
|-----------------------12------------------------------|
|-------------------------------------------------------|

|----------------------------------------------------------------|
|----------------------------------------------------------------|
|-11---12----12-11-------12-11--------12-11-------14----14----14-|
|---x8---x8--------12-9--------12-----------12-12----12----12----|
|-9----10-------------------------12-----------------------------|
|----------------------------------------------------------------|

GTR2
|----------------------|-------|----|-------|----|----------------------|
|----------------------|-------|----|-------|----|----------------------|
|----------------------|-------|----|-------|----|----------------------|
|------9----7----5-----|-4-----|----|-5-----|----|------9----7----5-----|
|-5-x3-9-x6-7-x6-5-x12-|-4-0-0-|-x6-|-5-0-0-|-x6-|-5-x3-9-x6-7-x6-5-x12-|
|-5----9----7----5-----|-4-0-0-|----|-5-0-0-|----|-5----9----7----5-----|

Post Chorus
GTR1
|-------------9h12p9-------------------|
|----------10--------10----------------|
|-------11--------------11-------------|
|----12--------------------12----------|
|-12--------------------------12-10-12-|
|--------------------------------------|

Repeat Verse
Repeat Pre Chorus
Repeat Chorus
Post Chorus 2
GTR1
|-------------------------------------------------------|
|-------------------------------------------------------|
|-12-11--------12-11---------12-11-------14----14----14-|
|-------12-9---------12------------12-12----12----12----|
|-----------------------12------------------------------|
|-------------------------------------------------------|

|---------------------------------------------------|------------------------------------|
|---------------------------------------------------|------------------------------------|
|---------------------------------------------------|--------------------------------7---|
|-12-11--------12-11-------12-11--------12-11-------|-12-11-------12-11---------------x8-|
|-------12-9---------12-7--------12-12--------12/14-|-------12-9--------12-7--7h9p7--5---|
|---------------------------------------------------|------------------------------------|

GTR2
|-----------------|----------------------|----------------|
|-----------------|----------------------|----------------|
|-----------------|----------------------|----------------|
|-9----7----5-----|-9----7----12----5----|-9----7----5----|
|-9-x6-7-x6-5-x12-|-9-x6-7-x6-12-x6-5-x6-|-9-x6-7-x6-5-x6-|
|-9----7----5-----|-9----7----12----5----|-9----7----5----|

Bridge
GTR1
|------------------------|------------------------|------------------------|-------------|
|------------------------|------------------------|------------------------|-------------|
|-7-7-9-9-11-11-14-14-14-|-7-7-9-9-7-7---9-11-9-7-|-7-7-9-9-11-11-14-14-14-|-7-7-5-5-7-7-|
|------------------------|------------------------|------------------------|-------------|
|-5-5-7-7-9--9--12-12-12-|-5-5-7-7-5-5---7-9--7-5-|-5-5-7-7-9--9--12-12-12-|-5-5-7-7-5-5-|
|------------------------|------------------------|------------------------|-------------|

GTR2
|-------------------|-------------|
|-------------------|-------------|
|-------------------|-------------|
|-0-0-2-2-4-4-7-7-7-|-0-0-2-2-0-0-|
|-0-0-2-2-4-4-7-7-7-|-0-0-2-2-0-0-| x2
|-0-0-2-2-4-4-7-7-7-|-0-0-2-2-0-0-|

Then
GTR1
|-15-------14----15----14----15/17-14----14h1514-------|----|
|----12-12----12----12----12----------15---------15-12-|----|
|------------------------------------------------------|----|
|------------------------------------------------------|----|
|------------------------------------------------------|-x3-|
|------------------------------------------------------|----|

|-15-------14----15----14----15/17-14/-|
|----12-12----12----12----12-----------|
|--------------------------------------|
|--------------------------------------|
|--------------------------------------|
|--------------------------------------|


GTR2
|-------------------|-------------|
|-------------------|-------------|
|-------------------|-------------|
|-0-0-2-2-4-4-7-7-7-|-0-0-2-2-0-0-|
|-0-0-2-2-4-4-7-7-7-|-0-0-2-2-0-0-| x2
|-0-0-2-2-4-4-7-7-7-|-0-0-2-2-0-0-|

Pre Chorus
Both
|---------|
|---------|
|---------|
|-4~----5-|
|-4~----5-|
|-4~----5-|

Final Chorus
GTR1
|-15-14--------15-14--------15-14-------17----17----17-17-|
|-------15-12--------15-----------15-15----15----15-------|
|-----------------------14--------------------------------|
|---------------------------------------------------------|
|---------------------------------------------------------| x2
|---------------------------------------------------------|

|---------------------------------------------------|
|---------------------------------------------------|
|---------------------------------------------------|
|-12-11--------12-11-------12-11--------12-11-------|
|-------12-9---------12-7--------12-12--------12/14-|
|---------------------------------------------------|

|------------------------------------|
|------------------------------------|
|--------------------------------7---|
|-12-11-------12-11---------------x8-|
|-------12-9--------12-7--7h9p7--5---|
|------------------------------------|


GTR2
|-----------------|----|----------------------|----------------|
|-----------------|----|----------------------|----------------|
|-----------------|----|----------------------|----------------|
|-9----7----5-----|----|-9----7----12----5----|-9----7----5----|
|-9-x6-7-x6-5-x12-|-x2-|-9-x6-7-x6-12-x6-5-x6-|-9-x6-7-x6-5-x6-|
|-9----7----5-----|----|-9----7----12----5----|-9----7----5----|

Outro
GTR1
|-15-------14----15----14----15/17-14----14h1514-------|----|
|----12-12----12----12----12----------15---------15-12-|----|
|------------------------------------------------------|----|
|------------------------------------------------------|----|
|------------------------------------------------------|-x3-|
|------------------------------------------------------|----|

|-15-------14----15----14----15/17-14/-|
|----12-12----12----12----12-----------|
|--------------------------------------|
|--------------------------------------|
|--------------------------------------|
|--------------------------------------|


GTR2
|-------------------|-------------|
|-------------------|-------------|
|-------------------|-------------|
|-0-0-2-2-4-4-7-7-7-|-0-0-2-2-0-0-|
|-0-0-2-2-4-4-7-7-7-|-0-0-2-2-0-0-| x2
|-0-0-2-2-4-4-7-7-7-|-0-0-2-2-0-0-|
Suggest correction new What's this?
You can suggest a correction to this tab. Community and Mods will review your correction and vote to approve or reject it.
comments
We did not receive enough feedback on this tab! Please rate:
print report bad tab
1 2 3 4 5
guest
You may want to rate the tab now too:
select rating
Please do not post tabs as comments. Select "correction" instead!