Oops, an error
Loading. Please wait.

Sonny Tab

version 1
version 1

Whole song

Interactive

1,489 views 1 this week
1 commentread comment
1 2 3 4 5
please rate
add to favorites
launch autoscroll
font size
0
reset
how to read this tab
guitar tuner
Autoscroll
slow
fast
+/-
esc
set tempo
stop
Help us to improve Ultimate-Guitar.com Take our survey!
×
Author
Difficulty
novice
This is my tab for it i think it sounds good so here it is :)


 INTRO Gtr I (Kris)
|----------|----------|----------|
|----------|----------|----------|
|----------|----------|----------|
|----------|----------|-0--------|
|----------|----------|-0--------|
|----------|----------|-0--------|


 VERSE Gtr I (Kris)
|----------------|--------------|----------------|--------------|
|----------------|--------------|----------------|--------------|
|-------7-----7--|--------------|------10----10--|--------------|
|----------------|--------------|----------------|--------------|
|----------------|--------------|----------------|--------------|
|-0--------------|------------0-|-8--------------|------------0-|

|----------------|-------------|----------------|-------------|
|----------------|-------------|----------------|-------------|
|-------7-----7--|-------------|-------9-----9--|-------------|
|----------------|-------------|----------------|-------------|
|----------------|-------------|----------------|-------------|
|-5--------------|----------0--|-7--------------|----------0--|

|----------------|--------------|----------------|---------------|
|----------------|--------------|----------------|---------------|
|-------7-----7--|--------------|------10----10--|---------------|
|----------------|--------------|----------------|---------------|
|----------------|--------------|----------------|---------------|
|-0--------------|----------0-0-|-8--------------|-----------0-0-|


|----------------|--------------|----------------|--------------|
|----------------|--------------|----------------|--------------|
|-------7-----7--|--------------|-------9-----9--|--------------|
|----------------|--------------|----------------|--------------|
|----------------|--------------|----------------|--------------|
|-5--------------|------------0-|-7--------------|------------0-|


 CHORUS Gtr I (Kris)
||--------------------------|------------------------|
||--------------------------|------------------------|
||--10-10-10-10-10-10-10-10-|------7-7--7--7--7-7--7-|
||---8--8--8--8--8--8--8--8-|------5-5--5--5--5-5--5-|
||---8--8--8--8--8--8--8--8-|------5-5--5--5--5-5--5-|
||---8--8--8--8--8--8--8--8-|------5-5--5--5--5-5--5-|

|-----------------------|----------------------------||  4x
|-----------------------|----------------------------||
|--7--7-7--7--7--7-7--7-|-----12-12-12-12-12-12-12---||
|--7--7-7--7--7--7-7--7-|-----10-10-10-10-10-10-10---||
|--5--5-5--5--5--5-5--5-|-----10-10-10-10-10-10-10---||
|--0--0-0--0--0--0-0--0-|-----10-10-10-10-10-10-10---||


        Gtr II (Darran)
||--------------------------|-12-------12-12------12-|
||--15-------15-15-------15-|------------------------|
||-----14----------14-------|-----14---------14------|
||--------------------------|------------------------|
||--------------------------|------------------------|
||--------------------------|------------------------|

|-13------13-13------13-|-15--------15-15-------15---||  4x
|-----------------------|----------------------------||
|----14---------14------|-----14----------14---------||
|-----------------------|----------------------------||
|-----------------------|----------------------------||
|-----------------------|----------------------------||


        Gtr III (Matt)
||---------------------8----|  4x
||---------------6----------|
||---------7----------------|
||--------------------------|
||--------------------------|
||--------------------------|

 Gtr I (Kris)
|-----------|
|-----------|
|--7--------|
|--7--------|
|--5--------|
|--0--------|
 Gtr II (Darran)
|-13--------|
|-----------|
|-----------|
|-----------|
|-----------|
|-----------|
 Gtr III (Matt)
|-----------|
|-----------|
|--7--------|
|-----------|
|-----------|
|-----------|


 Gtr I (Kris)
|------------------|------------------|
|------------------|------------------|
|--7-----s10-10----|--9-----s12-12----|
|------------------|------------------|
|------------------|------------------|
|------------------|------------------|

 Gtr II (Darran)
|-10---------13----|-12----------8----|
|------------------|------------------|
|------------------|------------------|
|------------------|------------------|
|------------------|------------------|
|------------------|------------------|


 OUTRO Gtr I (Kris)
||------------------------|-----------------------|
||------------------------|-----------------------|
||---9s=7-7--7--7--7-9s=7-|--7--7-7--7--7--7-7--7-|
||---x----x--x--x--x-x----|--x--x-x--x--x--x-x--x-|
||---7s=5-5--5--5--5-7s=5-|--5--5-5--5--5--5-5--5-|
||------------------------|-----------------------|

|-----------------------|-------------------------||  x4
|-----------------------|-------------------------||
|--9s=7-7--7--7--7-9s=7-|--7--7-7--7--7--7-7--7---||
|--x----x--x--x--x-x----|--x--x-x--x--x--x-x--x---||
|--7s=5-5--5--5--5-7s=5-|--5--5-5--5--5--5-5--5---||
|-----------------------|-------------------------||


       Gtr II (Darran)
||------------------------|-12------12-12------12-|
||--15------15-15------15-|-----------------------|
||-----14---------14------|----14---------14------|
||------------------------|-----------------------|
||------------------------|-----------------------|
||------------------------|-----------------------|

|-13------13-13------13-|-15------15-15------15---||  x4
|-----------------------|-------------------------||
|----14---------14------|----14---------14--------||
|-----------------------|-------------------------||
|-----------------------|-------------------------||
|-----------------------|-------------------------||


 Gtr I (Kris)
|-------------------------|-------------------------|
|-------------------------|-------------------------|
|--9s10-10-10-10-10-10-10-|-10s12-12-12-12-12-12-12-|
|--x-----x--x--x--x--x--x-|--x-----x--x--x--x--x--x-|
|--7s=8--8--8--8--8--8--8-|--8s10-10-10-10-10-10-10-|
|-------------------------|-------------------------|

|------------------------|--------------------------||
|------------------------|--------------------------||
|-12s10-10-10-10-10s9--9-|--9s10-10-10-10-10-10-10--||
|--x-----x--x--x--x----x-|--x-----x--x--x--x--x--x--||
|-10s=8--8--8--8--8s7--7-|--7s=8--8--8--8--8--8--8--||
|------------------------|--------------------------||

 Gtr II (Darran)
|-20----20-20----20-20----|-17-------17-18----18----|
|----15-------15-------15-|----15-------------------|
|-------------------------|-------------------------|
|-------------------------|-------------------------|
|-------------------------|-------------------------|
|-------------------------|-------------------------|


|-17-------17-17------17-|-15-------15-18----18-----||
|----15----------15------|----15--------------------||
|------------------------|--------------------------||
|------------------------|--------------------------||
|------------------------|--------------------------||
|------------------------|--------------------------||

 Gtr I (Kris)
|------------------|------------------|--------|
|------------------|------------------|--------|
|--7-----s10-10----|--9-----s12-12----|--7-----|
|------------------|------------------|--------|
|------------------|------------------|--------|
|------------------|------------------|--------|

 Gtr II (Darran)
|-10---------13----|-12----------8----|-10-----|
|------------------|------------------|--------|
|------------------|------------------|--------|
|------------------|------------------|--------|
|------------------|------------------|--------|
|------------------|------------------|--------|
Suggest correction new What's this?
You can suggest a correction to this tab. Community and Mods will review your correction and vote to approve or reject it.
comments
We did not receive enough feedback on this tab! Please rate:
print report bad tab
1 2 3 4 5
1 comment total.
0 reply
KidGT 35 wrote on May 3 2012, 03:38 pm

Tuning is Drop Db.

If you're a beginner like me and cant move your fingers fast enough at the transition from the G to the D part of the chorus you can just do a power chord on the 12th fret of the D, G, and D strings. Sounds exactly the same.

guest
You may want to rate the tab now too:
select rating
Please do not post tabs as comments. Select "correction" instead!