Oops, an error
Loading. Please wait.

Streetcar Bass Tab

version 1
version 1

Whole song

Interactive

2,743 views 3 this week
no commentswrite comment
1 2 3 4 5
please rate
add to favorites
launch autoscroll
font size
0
reset
guitar tuner
Tab Pro tools
  • play this tab
  • loop segment
  • change instrument
  • show fretboard
  • metronome
×
Best way to learn
"Streetcar"
Autoscroll
slow
fast
+/-
esc
set tempo
stop
Contributor
-------------------------------------------------------------------------------
                           Street Car- Funeral for A Friend
-------------------------------------------------------------------------------

 Tabbed By :dvanwyk
 e-mail:dustinvanwyk@yahoo.com

 Tuning:Drop D Flat (Db Ab Db Gb)

  Verse (0.16)
Gb|-------------------------------------------------------|
Db|-------------------------------------------------------|
Ab|-------------------------------------------------------|
Db|445-555555555-55-55555555-55-000000000-00-00000000-----|

Gb|------------------------------------------------|
Db|------------------------------------------------|
Ab|------------------------------------------------|
Db|55555555-55-55555555-55-00000000-00-000000000---|

  Chorus x2
Gb|-------------------------------------------------------------------------------|
Db|----------4-2-2h4------------2-4-4p5-------------------------------------------|
Ab|2-22-2-2-----------0-00-0-0----------------------------------------------------|
Db|--------------------------------------0000000000000000-5555555555555555--------|

 Verse
Gb|-------------------------------------------------------|
Db|-------------------------------------------------------|
Ab|-------------------------------------------------------|
Db|445-555555555-55-55555555-55-000000000-00-00000000-----|

Gb|------------------------------------------------|
Db|------------------------------------------------|
Ab|------------------------------------------------|
Db|55555555-55-55555555-55-00000000-00-000000000---|

  Chorus x4
Gb|-------------------------------------------------------------------------------|
Db|----------4-2-2h4------------2-4-4p5-------------------------------------------|
Ab|2-22-2-2-----------0-00-0-0----------------------------------------------------|
Db|--------------------------------------0000000000000000-5555555555555555--------|

 Bridge
Gb|--------------------------------------------------------------------|
Db|--------------------------------------------------------------------|
Ab|--------------------------------------------------------------------|
Db|/12-0000000000000000-7777777777777777-55555555-44444444/777777777---|
   
  x6
Gb|------------------------------------------------------------------------|
Db|------------------------------------------------------------------------|
Ab|2222222222222222-0000000000000000---------------------------------------|
Db|----------------------------------5555555555555555-4444444444444444-----|

 End off
Gb|-------------|
Db|-------------|
Ab|2~-----------|
Db|-------------|

comments
We did not receive enough feedback on this tab! Please rate:
print report bad tab
1 2 3 4 5
I want to post or [tab]
guest
You may want to rate the tab now too:
select rating
Please do not post tabs as comments. Select "correction" instead!