Oops, an error
Loading. Please wait.

Streetcar Tab

version 4
version 4
4,240 views 1 this week
2 commentsread comments
1 2 3 4 5
x 8
add to favorites
launch autoscroll
font size
0
reset
how to read this tab
guitar tuner
Autoscroll
slow
fast
+/-
esc
set tempo
stop
Help us to improve Ultimate-Guitar.com Take our survey!
×
Author
Tuning drop D then down half a step (low to high) Db, Ab, Db, Gb, Bb, Eb

This tab was originally by Lloyd (Emo_ffaf@hotmail.co.uk) so thanks to him but I added
the Lead Verse parts and corrected the intro, verse, chorus and ending. This is my first
tab/correction and I'm sure it is correct.

Intro (rhythm) (Giddy up) :-)

eb-----------------------------------------------------|
Bb-----------------------------------------------------|
Gb-----------------------------------------------------|
Db----4-444/55-5--55-5--55-5--55-5--55-5--55-5--55-5---|
Ab----4-444/55-5--55-5--55-5--55-5--55-5--55-5--55-5---|
Db----4-444/55-5--55-5--55-5--55-5--55-5--55-5--55-5---| x2
                  .. .  .. .  .. .  .. .  .. .  .. .
eb-----------------------------------------------------|
Bb-----------------------------------------------------|
Gb-----------------------------------------------------|
Db----4-444/55-5--00-0--00-0--00-0--00-0--00-0--00-0---|
Ab----4-444/55-5--00-0--00-0--00-0--00-0--00-0--00-0---|
Db----4-444/55-5--00-0--00-0--00-0--00-0--00-0--00-0---| x2
                  .. .  .. .  .. .  .. .  .. .  .. .


Verse (rhythm)

eb---------------------------------------------------|
Bb---------------------------------------------------|
Gb---------------------------------------------------|
Db----4/5--55-5--55-5--55-5--55-5--55-5--55-5--55-5--|
Ab----4/5--55-5--55-5--55-5--55-5--55-5--55-5--55-5--|
Db----4/5--55-5--55-5--55-5--55-5--55-5--55-5--55-5--| x2
           .. .  .. .  .. .  .. .  .. .  .. .  .. .

eb---------------------------------------------------|
Bb---------------------------------------------------|
Gb---------------------------------------------------|
Db----4/5--00-0--00-0--00-0--00-0--00-0--00-0--00-0--|
Ab----4/5--00-0--00-0--00-0--00-0--00-0--00-0--00-0--|
Db----4/5--00-0--00-0--00-0--00-0--00-0--00-0--00-0--| x2
           .. .  .. .  .. .  .. .  .. .  .. .  .. .                         

eb---------------------------------------------------|
Bb---------------------------------------------------|
Gb---------------------------------------------------|
Db----4/5--55-5--55-5--55-5--55-5--55-5--55-5--55-5--|
Ab----4/5--55-5--55-5--55-5--55-5--55-5--55-5--55-5--|
Db----4/5--55-5--55-5--55-5--55-5--55-5--55-5--55-5--| x2
           .. .  .. .  .. .  .. .  .. .  .. .  .. .                 

eb---------------------------------------------------|
Bb---------------------------------------------------|
Gb---------------------------------------------------|
Db----4/5--00-0--00-0--00-0--00-0--00-0--00-0--00-0--|
Ab----4/5--00-0--00-0--00-0--00-0--00-0--00-0--00-0--|
Db----4/5--00-0--00-0--00-0--00-0--00-0--00-0--00-0--| x2
           .. .  .. .  .. .  .. .  .. .  .. .  .. .
Verse (Lead)
eb----------------------------------|
Bb----------------------------------|
Gb--7-6--7-6--7-6--7/9--------------|
Db--x-x--x-x--x-x--x/x--------------|
Ab--5-4--5-4--5-4--5/7--------------|
Db----------------------------------| x2

eb----------------------------|
Bb----------------------------|
Gb--11-9--11-9--11-9--11/12---|
Db---x-x---x-x---x-x---x/-x---|
Ab---9-7---9-7---9-7---9/10---|
Db----------------------------| x2

eb----------------------------------|
Bb----------------------------------|
Gb--7-6--7-6--7-6--7/9--------------|
Db--x-x--x-x--x-x--x/x--------------|
Ab--5-4--5-4--5-4--5/7--------------|
Db----------------------------------| x2

eb----------------------------|
Bb----------------------------|
Gb--11-9--11-9--11-9--11/12---|
Db---x-x---x-x---x-x---x/-x---|
Ab---9-7---9-7---9-7---9/10---|
Db----------------------------| x2

Chorus (rhythm)
eb-------------------------------|
Bb-------------------------------|
Gb-------------------------------|
Db----9------7------0------5-----|   
Ab----9-x16--7-x16--0-x16--5-x16-|
Db----9------7------0------5-----| x2

Chorus (lead)

eb---t10p5p3p2p3p2p3/2---------------------|
Bb-----------------------------------------|
Gb-----------------------------------------|
Db-----------------------------------------|
Ab-----------------------------------------|
Db-----------------------------------------| x2

eb|-t15p5p3p2-t14p5p3p2-t12p5p3p2h5p3p2-|
Bb|-------------------------------------|
Gb|-------------------------------------|
Db|-------------------------------------|
Ab|-------------------------------------|
Db|-------------------------------------| x2

eb---t10p5p3p2p3p2p3/2---------------------|
Bb-----------------------------------------|
Gb-----------------------------------------|
Db-----------------------------------------|
Ab-----------------------------------------|
Db-----------------------------------------| x2

eb|-t15p5p3p2-t14p5p3p2-t12p5p3p2h5p3p2-|
Bb|-------------------------------------|
Gb|-------------------------------------|
Db|-------------------------------------|
Ab|-------------------------------------|
Db|-------------------------------------| x2

Verse (rhythm)
eb---------------------------------------------------|
Bb---------------------------------------------------|
Gb---------------------------------------------------|
Db----4/5--55-5--55-5--55-5--55-5--55-5--55-5--55-5--|
Ab----4/5--55-5--55-5--55-5--55-5--55-5--55-5--55-5--|
Db----4/5--55-5--55-5--55-5--55-5--55-5--55-5--55-5--| x2
           .. .  .. .  .. .  .. .  .. .  .. .  .. .

eb---------------------------------------------------|
Bb---------------------------------------------------|
Gb---------------------------------------------------|
Db----4/5--00-0--00-0--00-0--00-0--00-0--00-0--00-0--|
Ab----4/5--00-0--00-0--00-0--00-0--00-0--00-0--00-0--|
Db----4/5--00-0--00-0--00-0--00-0--00-0--00-0--00-0--| x2
           .. .  .. .  .. .  .. .  .. .  .. .  .. .                         

eb---------------------------------------------------|
Bb---------------------------------------------------|
Gb---------------------------------------------------|
Db----4/5--55-5--55-5--55-5--55-5--55-5--55-5--55-5--|
Ab----4/5--55-5--55-5--55-5--55-5--55-5--55-5--55-5--|
Db----4/5--55-5--55-5--55-5--55-5--55-5--55-5--55-5--| x2
           .. .  .. .  .. .  .. .  .. .  .. .  .. .                 

eb---------------------------------------------------|
Bb---------------------------------------------------|
Gb---------------------------------------------------|
Db----4/5--00-0--00-0--00-0--00-0--00-0--00-0--00-0--|
Ab----4/5--00-0--00-0--00-0--00-0--00-0--00-0--00-0--|
Db----4/5--00-0--00-0--00-0--00-0--00-0--00-0--00-0--| x2
           .. .  .. .  .. .  .. .  .. .  .. .  .. .

Verse (Lead)
eb----------------------------------|
Bb----------------------------------|
Gb--7-6--7-6--7-6--7/9--------------|
Db--x-x--x-x--x-x--x/x--------------|
Ab--5-4--5-4--5-4--5/7--------------|
Db----------------------------------| x2

eb----------------------------|
Bb----------------------------|
Gb--11-9--11-9--11-9--11/12---|
Db---x-x---x-x---x-x---x/-x---|
Ab---9-7---9-7---9-7---9/10---|
Db----------------------------| x2

eb----------------------------------|
Bb----------------------------------|
Gb--7-6--7-6--7-6--7/9--------------|
Db--x-x--x-x--x-x--x/x--------------|
Ab--5-4--5-4--5-4--5/7--------------|
Db----------------------------------| x2

eb----------------------------|
Bb----------------------------|
Gb--11-9--11-9--11-9--11/12---|
Db---x-x---x-x---x-x---x/-x---|
Ab---9-7---9-7---9-7---9/10---|
Db----------------------------| x2

Chorus (rhythm)
eb------------------------------|
Bb------------------------------|
Gb------------------------------|
Db----9------7------0------5----|   x4
Ab----9-x16--7-x16--0-x16--5-x16|
Db----9------7------0------5----|

Chorus (lead)
eb---t10p5p3p2p3p2p3/2---------------------|
Bb-----------------------------------------|
Gb-----------------------------------------|
Db-----------------------------------------|
Ab-----------------------------------------|
Db-----------------------------------------| x2

eb|-t15p5p3p2-t14p5p3p2-t12p5p3p2h5p3p2-|
Bb|-------------------------------------|
Gb|-------------------------------------|
Db|-------------------------------------|
Ab|-------------------------------------|
Db|-------------------------------------| x2

eb---t10p5p3p2p3p2p3/2---------------------|
Bb-----------------------------------------|
Gb-----------------------------------------|
Db-----------------------------------------|
Ab-----------------------------------------|
Db-----------------------------------------| x2

eb|-t15p5p3p2-t14p5p3p2-t12p5p3p2h5p3p2-|
Bb|-------------------------------------|
Gb|-------------------------------------|
Db|-------------------------------------|
Ab|-------------------------------------|
Db|-------------------------------------| x2

eb---t10p5p3p2p3p2p3/2---------------------|
Bb-----------------------------------------|
Gb-----------------------------------------|
Db-----------------------------------------|
Ab-----------------------------------------|
Db-----------------------------------------| x2

eb|-t15p5p3p2-t14p5p3p2-t12p5p3p2h5p3p2-|
Bb|-------------------------------------|
Gb|-------------------------------------|
Db|-------------------------------------|
Ab|-------------------------------------|
Db|-------------------------------------| x2

eb---t10p5p3p2p3p2p3/2---------------------|
Bb-----------------------------------------|
Gb-----------------------------------------|
Db-----------------------------------------|
Ab-----------------------------------------|
Db-----------------------------------------| x2

eb|-t15p5p3p2-t14p5p3p2-t12p5p3p2h5p3p2-|
Bb|-------------------------------------|
Gb|-------------------------------------|
Db|-------------------------------------|
Ab|-------------------------------------|
Db|-------------------------------------| x2

Interlude (rhythm) (after bass)

eb-----------------------------------------------------------------------
Bb-----------------------------------------------------------------------
Gb-----------------------------------------------------------------------
Db--9999999999999999-7777777777777777-5555555555555555-4444444444444/5/7-
Ab--9999999999999999-7777777777777777-5555555555555555-4444444444444/5/7-
Db--9999999999999999-7777777777777777-5555555555555555-4444444444444/5/7- x5
    ................ ................ ................ ............. . .

Interlude (lead)
eb|--9--9--9--9--9--9-10-10-10-10-10-10-12-12-12-12-|
Bb|-10-10-10-10-10-10-10-10-10-10-10-10-10-10-10-10-|
Gb|-------------------------------------------------|
Db|-------------------------------------------------|
Ab|-------------------------------------------------|
Db|-------------------------------------------------| x12

eb|--9--9--9--9--9--9-10-10-10-10-10-10-12-10-9-----|
Bb|-10-10-10-10-10-10-10-10-10-10-10-10---------10--|
Gb|-------------------------------------------------|
Db|-------------------------------------------------|
Ab|-------------------------------------------------|
Db|-------------------------------------------------| x8

End on

eb----------|
Bb---10~----|
Gb----------|
Db----------|
Ab----------|
Db----------|


Thanks for reading. :)
Suggest correction
comments
print report bad tab
2 comments total.
0 reply
LessThanLuke 1,606 Jun 02, 2005 12:00 AM

Verse is wrong. My tab (ver 3) has it perfect.

0 reply
blinnk16 103 Oct 11, 2006 02:51 PM

The verse may not be perfect, but over all it's better than luke's tab on ver 3, sorry luke. This is pretty sweet.

guest
You may want to rate the tab now too:
select rating
Wanna post a correction for this tab? Suggest correction