Oops, an error
Loading. Please wait.

The Getaway Plan Tab

version 3
version 3

Whole song

Interactive

161 views 1 this week
no commentswrite comment
1 2 3 4 5
please rate
add to favorites
launch autoscroll
font size
0
reset
how to read this tab
guitar tuner
Autoscroll
slow
fast
+/-
esc
set tempo
stop
Help us to improve Ultimate-Guitar.com Take our survey!
×
Contributor
Difficulty
Tabbers playing skills
intermediate
advanced
Song:The Getaway plan
Artist:Funeral for a friend
Tabber:Eric Leblanc
email: x-uncloudthesky-x@hotmail.com
Tuning: Drop Db (DbAbDbGbBbEb)

Intro 
Note:this is both the guitar parts its played 
like a question and answer
Eb|-----|-------|-----|-------|-----|-------|---------------------|
Bb|-----|-------|-----|-------|-----|-------|---------------------|
Gb|-----|-------|-----|-------|-----|-------|------6-7-7-7--------|
Db|-4-4-|-4-4-5-|-4-4-|-4-4-5-|-4-4-|-4-4-4-|-4-2--x-x-x-x--------|
Ab|-4-4-|-4-4-5-|-4-4-|-4-4-5-|-4-4-|-4-4-5-|-4-2--4-5-5-5--------|Play
Db|-4-4-|-4-4-5-|-4-4-|-4-4-5-|-4-4-|-4-4-5-|-4-2-----------------|2x
Then...(left Guitar)
Eb|----------|-----------|----------------------|
Bb|----------|-----------|----------------------|
Gb|-99999999-|--99999999-|-11-11-11-11-11/12/11-|
Db|-xxxxxxxx-|--xxxxxxxx-|-x--x--x--x--x//x//x--|Play 2x
Ab|-77777777-|--77777777-|-9--9--9--9--9//10/9--|
Db|----------|-----------|----------------------|
Then...
Eb|------------------------|----------------------------|
Bb|------------------------|----------------------------|
Gb|12-12-12-12-12-12-12-12-|-12-12-12-12-12-12-12-12----|
Db|x--x--x--x--x--x--x--x--|-x--x--x--x--x--x--x--x-----|
Ab|10-10-10-10-10-10-10-10-|-10-10-10-10-10-10-10-10----|
Db|------------------------|----------------------------|

Eb|------------------------|-----------------------|------|
Bb|------------------------|-----------------------|------|
Gb|14-14-14-14-14-14-14-14-|-14-14-14-14-14/16/14--|--11--|
Db|x--x--x--x--x--x--x--x--|-x--x--x--x--x-/x-/x---|--x---|
Ab|12-12-12-12-12-12-12-12-|-12-12-12-12-12/14/12--|--8---|
Db|------------------------|-----------------------|------|
Then...
Eb|-----------------|--------------------|
Bb|-----------------|--------------------|
Gb|-----------------|--------------------|
Db|-2h4-4-4-2h4-4-4-|-5-5-4-5h7-7-7------|PLay 8x
Ab|-2h4-4-4-2h4-4-4-|-5-5-4-5h7-7-7------|
Db|-2h4-4-4-2h4-4-4-|-5-5-4-5h7-7-7------|
Then...
Eb|----------|----------|---------|---------|
Bb|----------|----------|---------|---------|
Gb|-5-5---5--|-5-5---5--|-7-7---7-|-9-9---7-|
Db|-x-x---x--|-x-x---x--|-x-x---x-|-x-x---x-|Play 2x
Ab|-3-3---3--|-3-3---3--|-5-5---5-|-7-7---5-|
Db|----------|----------|---------|---------|












Then...
Eb|---------|---------|---------|---------|\
Bb|---------|---------|---------|---------| \
Gb|---------|---------|---------|---------|  \
Db|-4-4---4-|-4-4---4-|-4-4---4-|-4-4---4-|   \
Ab|-4-4---4-|-4-4---4-|-4-4---4-|-4-4---4-|    \
Db|-4-4---4-|-4-4---4-|-4-4---4-|-4-4---4-|     \
                                                 \
Eb|---------|---------|---------|---------|       \
Bb|---------|---------|---------|---------|        \ 
Gb|---------|---------|---------|---------|         \
Db|-5-5---5-|-5-5---5-|-5-5---5-|-5-5---5-|          \
Ab|-5-5---5-|-5-5---5-|-5-5---5-|-5-5---5-|           \
Db|-5-5---5-|-5-5---5-|-5-5---5-|-5-5---5-|            \
                                                        \Repeat all 
Eb|---------|---------|---------|---------|             /This 2x 
Bb|---------|---------|---------|---------|            /           
Gb|---------|---------|---------|---------|           /
Db|-0-0---0-|-0-0---0-|-0-0---0-|-0-0---0-|          /
Ab|-0-0---0-|-0-0---0-|-0-0---0-|-0-0---0-|         /
Db|-0-0---0-|-0-0---0-|-0-0---0-|-0-0---0-|        /
                                                  /
Eb|----------------------------------------|     /
Bb|----------------------------------------|    /
Gb|----------------------------------------|   /
Db|-7-------------8------------------------|  /
Ab|-7-------------8------------------------| /
Db|-7-------------8------------------------|/
Then...
Eb|-----|-------|-----|-------|-----|-------|--------------|
Bb|-----|-------|-----|-------|-----|-------|--------------|
Gb|-----|-------|-----|-------|-----|-------|--------------|
Db|-4-4-|-4-4-5-|-4-4-|-4-4-5-|-4-4-|-4-4-4-|-4-2----------|
Ab|-4-4-|-4-4-5-|-4-4-|-4-4-5-|-4-4-|-4-4-5-|-4-2----------|
Db|-4-4-|-4-4-5-|-4-4-|-4-4-5-|-4-4-|-4-4-5-|-4-2----------|
Then...
Eb|-----------------|--------------------|
Bb|-----------------|--------------------|
Gb|-----------------|--------------------|
Db|-2h4-4-4-2h4-4-4-|-5-5-4-5h7-7-7------|PLay 8x
Ab|-2h4-4-4-2h4-4-4-|-5-5-4-5h7-7-7------|
Db|-2h4-4-4-2h4-4-4-|-5-5-4-5h7-7-7------|
Then...
Eb|----------|----------|---------|---------|
Bb|----------|----------|---------|---------|
Gb|-5-5---5--|-5-5---5--|-7-7---7-|-9-9---7-|
Db|-x-x---x--|-x-x---x--|-x-x---x-|-x-x---x-|Play 1x
Ab|-3-3---3--|-3-3---3--|-5-5---5-|-7-7---5-|
Db|----------|----------|---------|---------|












Then...
Eb|---------|---------|---------|---------|\
Bb|---------|---------|---------|---------| \
Gb|---------|---------|---------|---------|  \
Db|-4-4---4-|-4-4---4-|-4-4---4-|-4-4---4-|   \
Ab|-4-4---4-|-4-4---4-|-4-4---4-|-4-4---4-|    \
Db|-4-4---4-|-4-4---4-|-4-4---4-|-4-4---4-|     \
                                                 \
Eb|---------|---------|---------|---------|       \
Bb|---------|---------|---------|---------|        \ 
Gb|---------|---------|---------|---------|         \
Db|-5-5---5-|-5-5---5-|-5-5---5-|-5-5---5-|          \
Ab|-5-5---5-|-5-5---5-|-5-5---5-|-5-5---5-|           \
Db|-5-5---5-|-5-5---5-|-5-5---5-|-5-5---5-|            \
                                                        \Repeat all 
Eb|---------|---------|---------|---------|             /This 2x 
Bb|---------|---------|---------|---------|            /           
Gb|---------|---------|---------|---------|           /
Db|-0-0---0-|-0-0---0-|-0-0---0-|-0-0---0-|          /
Ab|-0-0---0-|-0-0---0-|-0-0---0-|-0-0---0-|         /
Db|-0-0---0-|-0-0---0-|-0-0---0-|-0-0---0-|        /
                                                  /
Eb|----------------------------------------|     /
Bb|----------------------------------------|    /
Gb|----------------------------------------|   /
Db|-7-------------8------------------------|  /
Ab|-7-------------8------------------------| /
Db|-7-------------8------------------------|/
Then...
Eb|------------|---------|------------|---------|------------|--------|
Bb|------------|---------|------------|---------|------------|--------|
Gb|------------|---------|------------|---------|------------|--------|
Db|-4---4-4--4-|-4-4-4-4-|-4---4-4--4-|-4-4-4-4-|-5---5-5--5-|5-5-5-5-|
Ab|-4---4-4--4-|-4-4-4-4-|-4---4-4--4-|-4-4-4-4-|-5---5-5--5-|5-5-5-5-|
Db|-4---4-4--4-|-4-4-4-4-|-4---4-4--4-|-4-4-4-4-|-5---5-5--5-|5-5-5-5-|

Eb|------------|---------|------------|---------|------------|--------|
Bb|------------|---------|------------|---------|------------|--------|
Gb|------------|---------|------------|---------|------------|--------|
Db|-5---5-5--5-|-5-5-5-5-|-0---0-0--0-|-0-0-0-0-|-0---0-0--0-|0-0-0-0-|
Ab|-5---5-5--5-|-5-5-5-5-|-0---0-0--0-|-0-0-0-0-|-0---0-0--0-|0-0-0-0-|
Db|-5---5-5--5-|-5-5-5-5-|-0---0-0--0-|-0-0-0-0-|-0---0-0--0-|0-0-0-0-|

Eb|------------|---------|------------|---------|
Bb|------------|---------|------------|---------|
Gb|------------|---------|------------|---------|
Db|-7---7-7--7-|-7-7-7-7-|-8---8-8--8-|-8-8-8-8-|
Ab|-7---7-7--7-|-7-7-7-7-|-8---8-8--8-|-8-8-8-8-|
Db|-7---7-7--7-|-7-7-7-7-|-8---8-8--8-|-8-8-8-8-|













Then...
Eb|------------2----------|-----------3-------------2-------|
Bb|--------------------3--|---------------------------------|
Gb|-----------------------|---------------------------------|
Db|-4---------------------|-5-------------------------------|
Ab|-4let-ring-------------|-5let-ring-----------------------|
Db|-4---------------------|-5-------------------------------|

Eb|--------------------------|----------------------|
Bb|--------------------------|-----------5----------|
Gb|------------7-----9---11--|----------------------|
Db|-0------------------------|-7--------------------|
Ab|-0let-ring----------------|-7let-ring------------|
Db|-0------------------------|-7--------------------|

Eb|-----------|------------2--------|-------------3------2--------|
Bb|-----6-----|------------------3--|-----------------------------|
Gb|-----------|---------------------|-----------------------------|
Db|-8---------|-4-------------------|--5--------------------------|
Ab|-8let-ring-|-4let-ring-----------|--5-let-ring-----------------|
Db|-8---------|-4-------------------|--5--------------------------|

Eb|--------------------------|----------------------|
Bb|--------------------------|-----------5----------|
Gb|------------7-----9---11--|----------------------|
Db|-0------------------------|-7--------------------|
Ab|-0let-ring----------------|-7let-ring------------|
Db|-0------------------------|-7--------------------|

Eb|----------------|
Bb|------------6---|
Gb|----------------|
Db|-8--------------|
Ab|-8let-ring------|
Db|-8--------------|
Then...
Eb|----------------|-------------|----------------|---------------|
Bb|----------------|-------------|----------------|---------------|
Gb|----------------|-------------|----------------|---------------|
Db|-4-4--4-4--4--4-|-4-4--4----4-|-4-4--4-4--4--4-|-4-4--4----4---|
Ab|-4-4--4-4--4--4-|-4-4--4----4-|-4-4--4-4--4--4-|-4-4--4----4---|
Db|-4-4--4-4--4--4-|-4-4--4----4-|-4-4--4-4--4--4-|-4-4--4----4---|

Eb|----------------|-------------|----------------|---------------|
Bb|----------------|-------------|----------------|---------------|
Gb|----------------|-------------|----------------|---------------|
Db|-5-5--5-5--5--5-|-5-5--5----5-|-5-5--5-5--5--5-|-5-5--5----7---|
Ab|-5-5--5-5--5--5-|-5-5--5----5-|-5-5--5-5--5--5-|-5-5--5----7---|
Db|-5-5--5-5--5--5-|-5-5--5----5-|-5-5--5-5--5--5-|-5-5--5----7---|











Eb|----------------|-------------|----------------|---------------|
Bb|----------------|-------------|----------------|---------------|
Gb|----------------|-------------|----------------|---------------|
Db|-0-0--0-0--0--0-|-0-0--0----0-|-0-0--0-0--0--0-|-0-0--0----0---|
Ab|-0-0--0-0--0--0-|-0-0--0----0-|-0-0--0-0--0--0-|-0-0--0----0---|
Db|-0-0--0-0--0--0-|-0-0--0----0-|-0-0--0-0--0--0-|-0-0--0----0---|
Then...
Eb|----------|----------|----------|----------|
Bb|----------|----------|----------|----------|
Gb|----------|----------|----------|----------|
Db|-7--7---7-|-7--7---7-|-8--8---8-|-8--8---8-|
Ab|-7--7---7-|-7--7---7-|-8--8---8-|-8--8---8-|
Db|-7--7---7-|-7--7---7-|-8--8---8-|-8--8---8-|
Then...
Eb|-----------------|-----------------|-----------------|
Bb|-----------------|-----------------|-----------------|
Gb|-----------------|-----------------|-----------------|
Db|-4-4-4-4-4-4-4-4-|-5-5-5-5-5-5-5-5-|-0-0-0-0-0-0-0-0-|
Ab|-4-4-4-4-4-4-4-4-|-5-5-5-5-5-5-5-5-|-0-0-0-0-0-0-0-0-|
Db|-4-4-4-4-4-4-4-4-|-5-5-5-5-5-5-5-5-|-0-0-0-0-0-0-0-0-|
       ^PLay 4x        ^play 4x            ^play 4x

Eb|-----------------|-----------------|
Bb|-----------------|-----------------|
Gb|-----------------|-----------------|
Db|-7-7-7-7-7-7-7-7-|-8-8-8-8-8-8-8-8-|
Ab|-7-7-7-7-7-7-7-7-|-8-8-8-8-8-8-8-8-|
Db|-7-7-7-7-7-7-7-7-|-8-8-8-8-8-8-8-8-|
       ^play 2x         ^play 2x

Then...
Eb|-----|-------|-----|-------|-----|-------|--------------|
Bb|-----|-------|-----|-------|-----|-------|--------------|
Gb|-----|-------|-----|-------|-----|-------|--------------|
Db|-4-4-|-4-4-5-|-4-4-|-4-4-5-|-4-4-|-4-4-4-|-4-2----------|
Ab|-4-4-|-4-4-5-|-4-4-|-4-4-5-|-4-4-|-4-4-5-|-4-2----------|
Db|-4-4-|-4-4-5-|-4-4-|-4-4-5-|-4-4-|-4-4-5-|-4-2----------|





comments
We did not receive enough feedback on this tab! Please rate:
print report bad tab
1 2 3 4 5
I want to post or [tab]
guest
You may want to rate the tab now too:
select rating
Please do not post tabs as comments. Select "correction" instead!