Oops, an error
Loading. Please wait.

The Great Wide Open Tab

1,420 views 1 this week
1 commentread comment
1 2 3 4 5
please rate
add to favorites
launch autoscroll
font size
0
reset
how to read this tab
guitar tuner
Autoscroll
slow
fast
+/-
esc
set tempo
stop
Help us to improve Ultimate-Guitar.com Take our survey!
×
Author
Difficulty
Tuning
intermediate
C# G# C# F# A# D#
-----------------------------------------------------------------------
          "The Great Wide Open" by Funeral For A Friend
-----------------------------------------------------------------------
Tabbed by: thewakebehindyou@excite.com
September 5th 2008

Since no one seems to have the right main riff for this song:

"The Great Wide Open" from FFAF's 3rd LP 
"Tales Don't Tell Themselves"


Tuning: 
Drop C# (C# G# C# F# A# D#) 
~73 bpm
=-=-=-=-=-=-=-=-=-=-=-=-=-=-=-=-=-=-=-=-=-=-=-=-=-=-=-=-=-=-=-=-=-=-=-=

Intro 
0:00 - 0:13
e|--------------------------------------------------|
B|--------------------------------------------------|
G|----------------------2--------------5------------|
D|-----2--------5s3-----------2---------------------|  x4
A|--0-----0--3-------------------------------0--2---|
E|--------------------3----3-----3--5-----5---------|
    x     x  x        x    x     x  x     x

Verse I
0:13 - 0:26
e|--------------------------------------------------|
B|--------------------------------------------------|
G|--------------------------------------------------|
D|-----2--------5s3-----------------2---------------|  x3
A|--0-----0--3----------2-----3---------------2--3--|
E|-------------------3-----3-----3------3--3--------|
    x     x  x       x     x     x      x  x

e|--------------------------------------------------|
B|--------------------------------------------------|
G|--------------------------------------------------|
D|-----2--------5s3-----------------2--5--5--5--5---|  x1
A|--0-----0--3----------2-----3-----2--5--5--5--5---|
E|-------------------3-----3-----3--2--5--5--5--5---|
    x     x  x       x     x     x  x

Verse II
0:43 - 1:11
e|-------------------------------------------------|
B|-------------------------------------------------|
G|----------------------2--------------5-----------|
D|-----2--------5s3-----------2--------------------| x1
A|--0-----0--3-------------------------------------|
E|-------------------3-----3-----3--5--------------|
    x     x  x       x     x     x  x

e|-------------------------------------------------|
B|-------------------------------------------------|
G|----------------------2--------------------------|
D|-----2--------5s3----------2-----5s3-------------|  x4
A|--0-----0--3--------------------------0--2--3----|
E|-------------------3----3-----3------------------|
    x     x  x       x    x     x       x  x  x

e|--------------------------------------------------|
B|--------------------------------------------------|
G|--------------------------------------------------|
D|-----2--------5s3-----------------2---------------|  x3
A|--0-----0--3----------2-----3---------------2--3--|
E|-------------------3-----3-----3------3--3--------|
    x     x  x       x     x     x      x  x

e|--------------------------------------------------|
B|--------------------------------------------------|
G|--------------------------------------------------|
D|-----2--------5s3-----------------2--5--5--5--5---|  x1
A|--0-----0--3----------2-----3-----2--5--5--5--5---|
E|-------------------3-----3-----3--2--5--5--5--5---|
    x     x  x       x     x     x  x


=-=-=-=-=-=-=-=-=-=-=-=-=-=-=-=-=-=-=-=-=-=-=-=-=-=-=-=-=-=-=-=-=-=-=-=
Suggest correction
What's this?
You can suggest a correction to this tab. Community and Mods will review your correction and vote to approve or reject it.
comments
We did not receive enough feedback on this tab! Please rate:
print report bad tab
1 2 3 4 5
1 comment total.
0 reply
Ralf_nx 148 wrote on October 12 2015, 04:37 pm

Não tem refrão, Tablatura incompleta.
então não a o por que de dar mais estrelas

Não tem refrão, Tablatura incompleta.
então não a o por que de dar mais estrelas

Não tem refrão, Tablatura incompleta.
então não a o por que de dar mais estrelas

guest
You may want to rate the tab now too:
select rating
Please do not post tabs as comments. Select "correction" instead!