Oops, an error
Loading. Please wait.

This Side Of Brightness Tab

version 1
version 1

Whole song

Interactive

426 views 1 this week
no commentswrite comment
1 2 3 4 5
2 more votes to show rating
add to favorites
launch autoscroll
font size
0
reset
how to read this tab
guitar tuner
Autoscroll
slow
fast
+/-
esc
set tempo
stop
Help us to improve Ultimate-Guitar.com Take our survey!
×
Author
Difficulty
Tuning
novice
C# G# C# F# A# D#
Funeral for a Friend
This Side of Brightness
Welcome Home Armageddon 2010

C#G#C#F#A#D#

Rhythm
|--------------------------|----|----------------------------|
|-----5--------5-----------|----|-----5--------5-------5-5-5-|
|---4-4--4---4-4--4------4-|----|---4-4--4---4-4--4----4-4-4-|
|---2----2---2----2------2-|----|---2----2---2----2----4-4-4-|
|-4--------4--------4--4---|-x2-|-0--------0--------0--0-2-2-|
|--------------------------|----|----------------------------|

|--------------------------|----|--------------------------|--------------------------|
|-----5--------5-----------|----|-----5--------5-----------|-----5--------5-----------|
|---4-4--4---4-4--4------4-|----|---4-4--4---4-4--4------4-|---4-4--4---4-4--4------4-|
|---2----2---2----2------2-|----|---2----2---2----2------4-|---4----4---4----4------4-|
|-4--------4--------4--4---|-x2-|-0--------0--------0--0---|-2--------2--------2--2---|
|--------------------------|----|--------------------------|--------------------------|

|--------------------------|----|----------------------------|
|-----5--------5-----------|----|-----5--------5-------5-5-5-|
|---4-4--4---4-4--4------4-|----|---4-4--4---4-4--4----4-4-4-|
|---2----2---2----2------2-|----|---2----2---2----2----4-4-4-|
|-4--------4--------4--4---|-x2-|-0--------0--------0--0-2-2-|
|--------------------------|----|----------------------------|

Lead
|-7-------7--------------------------------------------------12-12-12~-|
|---7-9~----------------------------10-10-10-10-10-10-10--9------------|
|-----------8-9~----6-8-9-8-6---6~-------------------------------------|
|-----------------9-----------9----------------------------------------|
|----------------------------------------------------------------------|
|----------------------------------------------------------------------|

|-7-------7-----------------------------------|
|---7-9~----------------------------10-10-10~-|
|-----------8-9~----6-8-9-8-6---6~------------|
|-----------------9-----------9---------------|
|---------------------------------------------|
|---------------------------------------------|
Suggest correction
Give kudos to tab author, rate the tab!
1 2 3 4 5
comments
print report bad tab
guest
You may want to rate the tab now too:
select rating
Wanna post a correction for this tab? Suggest correction