Oops, an error
Loading. Please wait.

This Years Most Open Heartbreak Tab

version 1
version 1

Intro

Whole song

1,853 views 1 this week
2 commentsread comments
1 2 3 4 5
accurate
x 5
add to favorites
launch autoscroll
font size
0
reset
how to read this tab
guitar tuner
Autoscroll
slow
fast
+/-
esc
set tempo
stop
Help us to improve Ultimate-Guitar.com Take our survey!
×
e|---------------------------------------------------------------------------|
B|---------------------------------------------------------------------------|
G|---------------------------------------------------------------------------|
D|---------------------------------------------------------------------------|
A|-------7------6--------7--9--6---------------------------------------------|
E|----5------7------7/9------------------------------------------------------|

e|---------------------------------------------------------------------------|
B|---------------------------------------------------------------------------|
G|---------------------------------------------------------------------------|
D|---------------------------------------------------------------------------|
A|-------7------6--------7--9--6---------------------------------------------|
E|----5------7------7/9------------------------------------------------------|

this tab should be right. this is a great song.
Suggest correction
comments
print report bad tab
2 comments total.
0 reply
Bitter_Suites 210 wrote on May 30 2003, 12:00 am

Eb|------------------------|
Bb|------------------------|
Gb|------------------------|
Db|----3-----2-----3--5--2-|
Ab|-1-----3-----5----------|
Db|------------------------|

0 reply
whitmore_fan 10 wrote on May 12 2004, 12:00 am

its weird but it sounds rite

guest
You may want to rate the tab now too:
select rating
Wanna post a correction for this tab? Suggest correction