Oops, an error
Loading. Please wait.

This Years Most Open Heartbreak Tab

version 1
version 1

Whole song

13,965 views 9 this week
8 commentsread comments
1 2 3 4 5
accurate
x 14
add to favorites
launch autoscroll
font size
0
reset
how to read this tab
guitar tuner
Autoscroll
slow
fast
+/-
esc
set tempo
stop
Help us to improve Ultimate-Guitar.com Take our survey!
×
Funeral for a Friend - This Years Most Open Heartbreak
Tabbed by Iain Reilly
http://www.geocities.com/procession83

Guitar 2 Feedback

Intro (Guitar 1) x6
Eb|-------------------|
Bb|-------------------|
Gb|-------------------|
Db|---3---2-----3-5-2-|
Ab|-1---3---3h5-------|
Db|-------------------|

Intro (Guitar 2) x4
Eb|-----------------|
Bb|-----------------|
Gb|-----------------|
Db|---7---5---7-8-5-|
Ab|-5---8---7-------|
Db|-----------------|

Intro End (Guitar 1) x1
Eb|---|
Bb|---|
Gb|---|
Db|---|
Ab|-3-|
Db|---|

Intro End (Guitar 1) x1
Eb|---|
Bb|---|
Gb|-5-|
Db|---|
Ab|---|
Db|---|

Verse (Guitar 1) x4
Eb|---------------------------------------------------------|
Bb|---------------------------------------------------------|
Gb|---------------------------------------------------------|
Db|-1p0-0-0-1-0-1-0-1p0-0-0-2-2-0-0-2-2-0-0-----3---3h5-----|
Ab|-1p0-0-0-1-0-1-0-1p0-0-0-2-2-0-0-2-2-0-0-1h3---3-----3h5-|
Db|-1p0-0-0-1-0-1-0-1p0-0-0-2-2-0-0-2-2-0-0-----------------|
PM      ...   .   .     ...     ...     ...

Verse (Guitar 2) x4
Eb|---------------------------------------------------------|
Bb|---------------------------------------------------------|
Gb|---------------------------------------------------------|
Db|-1p0-0-0-1-0-1-0-1p0-0-0-2-2-0-0-2-2-0-0-----7---7h8-----|
Ab|-1p0-0-0-1-0-1-0-1p0-0-0-2-2-0-0-2-2-0-0-5h8---8-----7h8-|
Db|-1p0-0-0-1-0-1-0-1p0-0-0-2-2-0-0-2-2-0-0-----------------|
PM      ...   .   .     ...     ...     ...

Pre-Chorus Part 1 (Guitar 2) x1
Eb|------------------------------------------------------------------------------|
Bb|------------------------------------------------------------------------------|
Gb|-----10---9--------12---10---9---------------10-9------------------12-10-9----|
Db|--------------10-----------------10-000-10-0------10-8-------10------------10-|
Ab|------------------------------------------------------------------------------|
Db|-8-8----8---8----8----8----8---8-----------------------10-10----10------------|
PM  ...    .   .    .    .    .   .    ...    .           .....    ..

Pre-Chorus Part 2 (Guitar 2) x1
Eb|-------------------------------------------------------------------------------|
Bb|-------------------------------------------------------------------------------|
Gb|----------10---9--------12---10---------------10-9------------------12-10-9----|
Db|-----10------------10-------------10-000-10-0------10-8-------10------------10-|
Ab|-------------------------------------------------------------------------------|
Db|-8-8----8----8---8----8----8----8-----------------------10-10----10------------|
PM  ...    .    .   .    .    .    .    ...    .           .....    ..

Chorus (Guitar 1) x2
Eb|---------------------------------|
Bb|---------------------------------|
Gb|-7-7-7-7-7-7-7-7-7-7-7-5-5-5-5-5-|
Db|-7-7-7-x-x-x-x-x-7-7-7-x-x-x-x-x-|
Ab|-5-5-5-5-5-5-5-5-5-5-5-3-3-3-3-3-|
Db|---------------------------------|

Chorus (Guitar 2) x2
Eb|------------------------------------------------------------|
Bb|------------------------------------------------------------|
Gb|-10--10-10--10--10-10--10--10--12--12-12--12----------------|
Db|--8---8--8---8---8--8---8---8--10--10-10--10-15-14-10h12-12-|
Ab|--8---8--8---8---8--8---8---8--10--10-10--10----------------|
Db|--8---8--8---8---8--8---8---8--10--10-10--10----------------|

Verse x4
Chorus x2

Chorus Part 2 (Guitar 1) x4
Eb|-------------------------|
Bb|-13-13-13----------------|
Gb|--x--x--x-13-13-13-13-13-|
Db|-10-10-10--x--x--x--x--x-|
Ab|----------10-10-10-10-10-|
Db|-------------------------|

Chorus Part 2 (Guitar 2) x1
Eb|-------------------------------------------------|
Bb|-------------------------------------------------|
Gb|-10-10-10-10-10-10-10-10-10-10-10-10-10-10-10-10-|
Db|--8--8--8--8--8--8--8--8--8--8--8--8--8--8--8--8-|
Ab|--8--8--8--8--8--8--8--8--8--8--8--8--8--8--8--8-|
Db|--8--8--8--8--8--8--8--8--8--8--8--8--8--8--8--8-|

Eb|----------------------------------------|
Bb|----------------------------------------|
Gb|-12-12-12-12-12-12-12-12----------------|
Db|-10-10-10-10-10-10-10-10-15-14-10h12-12-|
Ab|-10-10-10-10-10-10-10-10----------------|
Db|-10-10-10-10-10-10-10-10----------------|

Chorus Part 2 End (Guitar 2) x1
Eb|-------------------------------------------------|
Bb|-------------------------------------------------|
Gb|-10-10-10-10-10-10-10-10-10-10-10-10-10-10-10-10-|
Db|--8--8--8--8--8--8--8--8--8--8--8--8--8--8--8--8-|
Ab|--8--8--8--8--8--8--8--8--8--8--8--8--8--8--8--8-|
Db|--8--8--8--8--8--8--8--8--8--8--8--8--8--8--8--8-|

Eb|-------------------------13-12----------|
Bb|--------------------------x--x-13/15-15-|
Gb|-12-12-12-12-12-12-12-12-10--9--x/-x--x-|
Db|-10-10-10-10-10-10-10-10-------10/12-12-|
Ab|-10-10-10-10-10-10-10-10----------------|
Db|-10-10-10-10-10-10-10-10----------------|

Interlude Part 1 (Guitar 2) x2
Eb|-------------------------------------|
Bb|-------------------------------------|
Gb|-------------------------------------|
Db|-----10------------------------------|
Ab|------------8-----8h12-----8-----7h8-|
Db|-0-0----0-0---0-0------0-0---0-0-----|
PM  ...    ...   ...      ...   ...

Interlude Part 2 (Guitar 1) x4
Eb|----------------------------------------|
Bb|----------------------------------------|
Gb|----------------------------------------|
Db|-0-0--0-0--0-0--0-0--0-0--0-0--0-0--0-0-|
Ab|-0-0--0-0--0-0--0-0--0-0--0-0--0-0--0-0-|
Db|-0-0--0-0--0-0--0-0--0-0--0-0--0-0--0-0-|
PM  ......................................

Interlude Part 2 (Guitar 2) x4
Eb|----------------------------------------------------------------|
Bb|----------------------------------------------------------------|
Gb|---------------------------5p0-----7-----------7-----9-----9h10-|
Db|-----3p2-------------3p2-----------------7----------------------|
Ab|-----------3---3h5----------------------------------------------|
Db|-0-0-----0---0-----0-----0-----0-0---0-0---0-0---0-0---0-0------|
PM  ...     .   .     .     .     ...   ...   ...   ...   ...

Pre-Chorus Part 1 x2
Chorus x2
Chorus Part 2 x2

End (Both Guitars) x1
Eb|-----------------------------|
Bb|-----------------------------|
Gb|-----------------------------|
Db|-1p0-0-0-1-0-1-0-1p0-0-0-2-2-|
Ab|-1p0-0-0-1-0-1-0-1p0-0-0-2-2-|
Db|-1p0-0-0-1-0-1-0-1p0-0-0-2-2-|
PM      ...   .   .     ...

Comments/Rants/Corrections: Obscure_Divine_Manifestation@hotmail.com
Suggest correction
comments
print report bad tab
8 comments total. Showing first comments.
0 reply
Bitter_Suites 210 wrote on June 29 2003, 12:00 am

opps..

Interlude Part 1 (Guitar 2) x2
Eb|-----------------------------------|
Bb|-----------------------------------|
Gb|-----------------------------------|
Db|-----10----------------------------|
Ab|------------8-----8h12-----8---7h8-|
Db|-0-0----0-0---0-0------0-0---0-----|
PM ... ... ... ... .

0 reply
Bitter_Suites 210 wrote on June 29 2003, 12:00 am

well that came out wrong but you get the idea.. palm mute the 0's

0 reply
Gibson Geek 30 wrote on November 11 2005, 10:16 am

great tab.i think the intro sounds better with a slide rather than a hammer on. it seems to flow beter

guest
You may want to rate the tab now too:
select rating
Please do not post tabs as comments. Select "correction" instead!