Oops, an error
Loading. Please wait.

Vultures Tab

version 1
version 1

Whole song

Interactive

240 views 1 this week
no commentswrite comment
1 2 3 4 5
3 more votes to show rating
add to favorites
launch autoscroll
font size
0
reset
how to read this tab
guitar tuner
Autoscroll
slow
fast
+/-
esc
set tempo
stop
Help us to improve Ultimate-Guitar.com Take our survey!
×
Author
Difficulty
Tuning
novice
C# G# C# F# A# D#
Vultures
C#G#C#F#A#D#

Intro 
GTR1
|---0---7-----0---7-7-----|----|---0---7-----0---7-7-7-|
|---3---8-----3---8-8-----|----|---3---8-----3---8-8-8-|
|---0---5-----0---5-5-----|----|---0---5-----0---5-5-5-|
|-2---2-----2---2-----0-0-|----|-2---2-----2---2-------|
|-2---2-----2---2-----0-0-|-x3-|-2---2-----2---2-------|
|-2---2---0-2---2-----0-0-|----|-2---2---0-2---2-------|

GTR2
|----------------------------|
|----------------------------|
|----------------------------|
|-2-2-2/10---2-2-2/10-10-----|
|-2-2-2/10---2-2-2/10-10-----| x4
|-2-2-2/10-0-2-2-2/10-10-0-0-|

Verse
GTR1
|---0-----------------0-----------------|
|-----3-----------------3---------3-3-3-|
|-------0-----------------0---x-x-0-0-0-|
|-2-----------------2---------x-x-2-2-2-|
|-----------------------------x-x-------| x2
|-----------------------------x-x-------|

|---0---7-----0---7-7-----|----|---0---7-----0---7-7-7-|
|---3---8-----3---8-8-----|----|---3---8-----3---8-8-8-|
|---0---5-----0---5-5-----|----|---0---5-----0---5-5-5-|
|-2---2-----2---2-----0-0-|----|-2---2-----2---2-------|
|-2---2-----2---2-----0-0-|-x3-|-2---2-----2---2-------|
|-2---2---0-2---2-----0-0-|----|-2---2---0-2---2-------|

GTR2
|---------------------------------------|
|---------------------------------------|
|---------------------------------7-7-7-|
|-2-2/5------------2-2/5------x-x-5-5-5-|
|-2-2/5------------2-2/5------x-x-5-5-5-| x2
|-2-2/5------------2-2/5------x-x-5-5-5-|

|----------------------------|
|----------------------------|
|----------------------------|
|-2-2-2/10---2-2-2/10-10-----|
|-2-2-2/10---2-2-2/10-10-----| x4
|-2-2-2/10-0-2-2-2/10-10-0-0-|

Chorus
GTR1
|-------------------|----|------|
|-------------------|----|------|
|-2----5----4--2----|----|-2----|
|-0----5-x2-2--0----|----|-0----|
|-0-x2-3----2--0-x2-|-x2-|-0-x2-|
|-0---------2--0----|----|-0----|

GTR2
|-----7-----5--------------------------|
|---5---8/5-----------8-7--------8-7---|
|-7---------------4/7-----9--4/7-----9-|
|--------------------------------------|
|--------------------------------------| x2
|--------------------------------------|

Repeat Verse
Repeat Chorus x2
Bridge
GTR1
|-----------------------------|----|-8-7-------10---------10/12----|----|
|--------7-8/10---------------|----|-----8-------------12-------10-|----|
|---------------8-------7/9---|----|-------7------8----------------|----|
|------9-----------12/7-----7-|----|---------9------12-------------|----|
|-7-10------------------------|-x2-|-------------------------------|-x2-|
|-----------------------------|----|-------------------------------|----|

|-----------------------------|----|
|--------7-8/10---------------|----|
|---------------8-------7/9---|----|
|------9-----------12/7-----7-|----|
|-7-10------------------------|-x2-|
|-----------------------------|----|

GTR2
|------------|----|-------------------------|----|------------------------------------------------|
|------------|----|---3-3---3-3---3-3---3-3-|----|-------3-3-3-------3-3-3-------3-3-3-------3-3-3|
|------------|----|---4-4---3-3---2-2---2-2-|----|-------4-4-4-------3-3-3-------2-2-2-------2-2-2|
|-2--1--0--0-|----|-2-2-2-1-1-1-0-0-0-0-0-0-|----|-2-2-2-2-2-2-1-1-1-1-1-1-0-0-0-0-0-0-0-0-0-0-0-0|
|-2--1--0--0-|-x2-|-2-----1-----0-----0-----|-x2-|-2-2-2-------1-1-1-------0-0-0-------0-0-0------|
|-2--1--0--0-|----|-2-----1-----0-----0-----|----|-2-2-2-------1-1-1-------0-0-0-------0-0-0------|

Then
GTR1
|-----------------------------------------------|
|-----------------------------------------------|
|-----------------------------------------------|
|---2---------2-------------2---------2---------|
|-------3---------3-3-----------3---------3-3/5-| x2
|-2---2---0-2---2-----0-0-2---2---0-2---2-------|

GTR2 - Enters
|-----------------------------------------------|
|-----------------------------------------------|
|-----------------------------------------------|
|---2---------2-------------2---------2---------|
|-------3---------3-3-----------3---------3-3/5-|
|-2---2---0-2---2-----0-0-2---2---0-2---2-------|

Repeat Chorus
Outro
GTR1
|---0----------0--------|----|---|
|---3----------3--------|----|---|
|---0----------0--------|----|-4-|
|-2---2-0----2---2-0----|----|-2-|
|-2---2-0-x4-2---2-0-x8-|-x4-|-2-|
|-2---2-0----2---2-0----|----|-2-|

GTR2
|-----------------------|----|---|
|-----------------------|----|---|
|-----------------------|----|-4-|
|-2-2-2-0----2-2-2-0----|----|-2-|
|-2-2-2-0-x4-2-2-2-0-x8-|-x4-|-2-|
|-2-2-2-0----2-2-2-0----|----|-2-|
Suggest correction
Give kudos to tab author, rate the tab!
1 2 3 4 5
comments
print report bad tab
guest
You may want to rate the tab now too:
select rating
Wanna post a correction for this tab? Suggest correction